» » »

Criminal Piece Tabs (ver.1)

Artists:  A B C D E F G H I J K L M N O P Q R S T U V W X Y Z # 

Criminal Piece Tabs (ver.1)

Ted Leo
Rating:
3/5 (2 votes)

Hard to play? Try these video lessons and learn fast.
                (Intro)
the whole intro is palm muted

e--------------------------------|
b--------------------------------|
g--------------------------------|
d--------------------------------|
a-55-5-5-5---5-------------------|
e----------7---7-5---0-0-2-3-2-0-|x2

e---------------------------------|
b---------------------------------|
g------------------9--------------|
d------------------7--------------|
a-55-5-5-5---5--------------------|
e----------7---7-5----0-0-2-3-2-0-|x1

e--------------------------------|
b--------------------------------|
g--------------------------------|
d--------------------------------|
a-55-5-5-5---5-------------------|
e----------7---7-5---0-0-2-3-2-0-|x1
            
Hard to play? Try these video lessons and learn fast. | Correct




comments powered by Disqus
↑ Back to top | Tablatures and chords are parodies/interpretations of the original songs. You may use it for private study, scholarship, research or language learning purposes only