» » »

Angels Share Tabs (ver.1)

Artists:  A B C D E F G H I J K L M N O P Q R S T U V W X Y Z # 

Angels Share Tabs (ver.1)

Ted Leo
Rating:
4/5 (2 votes)

Hard to play? Try these video lessons and learn fast.
                e|-------------------------------------------|
b|-------------------------------------------|
g|-------------------------------------------|
d|-------------------------------------------|
a|--7-7-7-7-7-7-7-7-7-7-7-7-7-7-7-7-7-7------|
e|-0-0-0-0-0-0-0-0-0-0-0-0-0-0-0-0-0-0--alot-|
pm--------------------------------------------|

e|-----------------|
b|-----------------|
g|-----------------|
d|-4-4-4-4-4-4-4-4-|
a|-4-4-4-4-4-4-4-4-|
e|-2-2-2-2-2-2-2-2-|

e|-----------|
b|-----------|
g|-----------|
d|-2-2-----2-|
a|-----2h4---|
e|-----------|x2

e|--------------------------------|
b|--------------------------------|
g|--------------------------------|
d|-4-4-4-4-4-4-4-4-7-7-7-7-9-9-9-9|
a|-4-4-4-4-4-4-4-4-7-7-7-7-9-9-9-9|
e|-2-2-2-2-2-2-2-2-5-5-5-5-7-7-7-7|

e|-------------------------------------------|
b|-------------------------------------------|
g|-------------------------------------------|
d|-------------------------------------------|
a|--7-7-7-7-7-7-7-7-7-7-7-7-7-7-7-7-7-7------|
e|-0-0-0-0-0-0-0-0-0-0-0-0-0-0-0-0-0-0--some-|
pm-------------------------------------------|

e|-------------------------------------------|
b|-------------------------------------------|
g|-------------------------------------------|
d|-------------------------------------------|
a|--7-7-7-7-7-7-7-7-7-7-7-7-7-7-7-7-7-7------|
e|-0-0-0-0-0-0-0-0-0-0-0-0-0-0-0-0-0-0--some-| (Not Palm Muted)

e|-----------------|
b|-----------------|
g|-----------------|
d|-4-4-4-4-4-4-4-4-|
a|-4-4-4-4-4-4-4-4-|
e|-2-2-2-2-2-2-2-2-|

e|-----------|
b|-----------|
g|-----------|
d|-2-2-----2-|
a|-----2h4---|
e|-----------|x2

e|--------------------------------|
b|--------------------------------|
g|--------------------------------|
d|-4-4-4-4-4-4-4-4-7-7-7-7-9-9-9-9|
a|-4-4-4-4-4-4-4-4-7-7-7-7-9-9-9-9|
e|-2-2-2-2-2-2-2-2-5-5-5-5-7-7-7-7|

|------------------------------------------------|
|------------------------------------------------|
|------------------------------------------------|
|-2-2----2-2-2----2-2-2----2-2-2-----444b4-2-----|
|-----2h4------2h4------2h4------2h4---------4-2-|
|------------------------------------------------|x4

e|-------------------------------------------|
b|-------------------------------------------|
g|-------------------------------------------|
d|-------------------------------------------|
a|--7-7-7-7-7-7-7-7-7-7-7-7-7-7-7-7-7-7------|
e|-0-0-0-0-0-0-0-0-0-0-0-0-0-0-0-0-0-0--some-| (Not Palm Muted)

e|-----------------|
b|-----------------|
g|-----------------|
d|-4-4-4-4-4-4-4-4-|
a|-4-4-4-4-4-4-4-4-|
e|-2-2-2-2-2-2-2-2-|

e|-----------|
b|-----------|
g|-----------|
d|-2-2-----2-|
a|-----2h4---|
e|-----------|x2

e|--------------------------------|
b|--------------------------------|
g|--------------------------------|
d|-4-4-4-4-4-4-4-4-7-7-7-7-9-9-9-9|
a|-4-4-4-4-4-4-4-4-7-7-7-7-9-9-9-9|
e|-2-2-2-2-2-2-2-2-5-5-5-5-7-7-7-7|

|--------------------------------------------------|
|--------------------------------------------------|
|--------------------------------------------------|
|-2-2-----2-2-2----2-2-2----2-2-2------2-2-2-----2-|
|-----2h4-------2h4------2h4--------2h4-------2h4--|
|--------------------------------------------------|

|-555555555555555555555555555555-5-5-|
|-555555555555555555555555555555-5-5-|
|-666666666666666666666666666666-6-6-|
|-777777777777777777777777777777-7-7-|
|-777777777777777777777777777777-7-7-|
|-555555555555555555555555555555-5-5-|

|--------------------------------------------------|
|--------------------------------------------------|
|--------------------------------------------------|
|-2-2-----2-2-2----2-2-2----2-2-2------2-2-2-----2-|
|-----2h4-------2h4------2h4--------2h4-------2h4--|
|--------------------------------------------------|

|-555555555555555555555555555555-5-5-|
|-555555555555555555555555555555-5-5-|
|-666666666666666666666666666666-6-6-|
|-777777777777777777777777777777-7-7-|
|-777777777777777777777777777777-7-7-|
|-555555555555555555555555555555-5-5-|

|--------------------------------------------------|
|--------------------------------------------------|
|--------------------------------------------------|
|-2-2-----2-2-2----2-2-2----2-2-2------2-2-2-----2-|
|-----2h4-------2h4------2h4--------2h4-------2h4--|
|--------------------------------------------------|x2

e|-------------------------------------------|
b|-------------------------------------------|
g|-------------------------------------------|
d|-------------------------------------------|
a|--7-7-7-7-7-7-7-7-7-7-7-7-7-7-7-7-7-7------|
e|-0-0-0-0-0-0-0-0-0-0-0-0-0-0-0-0-0-0--some-|
pm-------------------------------------------|

e|-----------------|
b|-----------------|
g|-----------------|
d|-4-4-4-4-4-4-4-4-|
a|-4-4-4-4-4-4-4-4-|
e|-2-2-2-2-2-2-2-2-|

e|-----------|
b|-----------|
g|-----------|
d|-2-2-----2-|
a|-----2h4---|
e|-----------|x2

e|--------------------------------|
b|--------------------------------|
g|--------------------------------|
d|-4-4-4-4-4-4-4-4-7-7-7-7-9-9-9-9|
a|-4-4-4-4-4-4-4-4-7-7-7-7-9-9-9-9|
e|-2-2-2-2-2-2-2-2-5-5-5-5-7-7-7-7|

e|-----------|
b|-----------|
g|-----------|
d|-2-2-----2-|
a|-----2h4---|
e|-----------|x2

|------------------------------------------------|
|------------------------------------------------|
|------------------------------------------------|
|-2-2----2-2-2----2-2-2----2-2-2-----444b4-2-----|
|-----2h4------2h4------2h4------2h4---------4-2-|
|------------------------------------------------|x4

end note
|-0-|
|-0-|
|-0-|
|-2-|
|-2-|
|-0-|
            
Hard to play? Try these video lessons and learn fast. | Correct




comments powered by Disqus
↑ Back to top | Tablatures and chords are parodies/interpretations of the original songs. You may use it for private study, scholarship, research or language learning purposes only