» » »

Ted Gardestad, For Karlekens Skull Tabs (ver.1)

Artists:  A B C D E F G H I J K L M N O P Q R S T U V W X Y Z # 

For Karlekens Skull Tabs (ver.1)

Ted Gardestad Tabs
Rating:
5/5 (1 vote)
For Karlekens Skull lessons Tabs too difficult? Try these video lessons and learn fast
                För kärlekens skull
________

Intro
Vers 1
Vers 2
Ref 
Solo
Vers 3
Ref
Outro 
________



Intro:

   (G)          (D/F#)      (Em)       (Bm/D)        (C)
e-7-----7-----5-----5----|-3-----3-----2--3-----0-|------------0----------|
B----------------3-----3-|----0-----0--------3----|------1-----------1h>3-|
G----7-----7-------------|------------------------|---0-----0-----0-------|
D-5-----------4----------|-2-----------0----------|-----------------------|
A------------------------|------------------------|-3---------------------|
E------------------------|------------------------|-----------------------|

  (C)          (G/B)       (Am7)     (Am7/D)       (G)
e-0-----------------3----|------------------------|-----------------------|
B-------1--3-----------0-|-1--------1--0h>1-------|------------0----------|
G----0-----------0-------|-------0-----------2--0-|------0-----------0----|
D------------------------|----2--------0----------|---0-----0-----0-----0-|
A-3-----------2----------|-0----------------------|-----------------------|
E------------------------|------------------------|-3---------------------|





Vers: 1,2,3

  Am7         D7           G            C
e-------0-----------2----|-------3-----------0----|
B-------1-----------1----|-------0-----------1----|
G----0-----0-----2-----2-|----0-----0-----0-----0-|
D-------------0----------|------------------------|
A-0----------------------|-------------3----------|
E------------------------|-3----------------------|

   Am7         D7           Gmaj7
e-------0-----------2----|------------------------|
B-------1-----------1----|-------------3----------|
G----0-----0-----2-----2-|-------4-----------4----|
D-------------0----------|----4-----4-----4-----4-|
A-0----------------------|------------------------|
E------------------------|-3----------------------|

  Am7         B7           Em          Em/D
e-------0-----------2----|----------0-----------0-|
B-------1-----------0----|-------0-----------0----|
G----0-----0-----2-------|----0-----------0-------|
D----------------------1-|-2-----------0----------|
A-0-----------2----------|------------------------|
E------------------------|------------------------|

 Cmaj7                    Cmaj7                        (Cmaj7)
e------------------------|----------3-----------3-|   (---3---)
B----------5-----------5-|-------5-----5-----5----|   (---5---)
G-------4-----4-----4----|----4-----------4-------|   (---4---)
D----5-----------5-------|------------------------|   (---5---)
A-3----------------------|-3----------------------|   (---3---)
E------------------------|------------------------|   (-------)

 D11                       D7      
e-------------5----------|----------5-------------|
B----------5-----5-------|----------7-------------|
G-------5-----------5----|-------5----------------|
D----5-----------------5-|----7-------------------|
A-5----------------------|-5-------------------(5)|
E------------------------|------------------------|





Ref:
   (G)          (D/F#)      (Em)       (Bm/D)        (C)
e-------7-----------5----|-------3-----------2----|------------0----------|
B----------------3-----3-|----0-----0-----0-----0-|------1-----------1h>3-|
G----7-----7-------------|------------------------|---0-----0-----0-------|
D-5-----------4----------|-2-----------0----------|-----------------------|
A------------------------|------------------------|-3---------------------|
E------------------------|------------------------|-----------------------|

 C           G/B          Am7          D7          G
e------------------------|------------------------|-----------------------|
B-------5-----------3----|-------1-----------2----|------------0----------|
G----0-----0-----0-----0-|----0-----0-----3-----3-|------0-----------0----|
D------------------------|-------------0----------|---0-----0-----0-----0-|
A-3-----------2----------|-0----------------------|-----------------------|
E------------------------|------------------------|-3---------------------|

  G            D/F#        E          Em/D
e------------------------|----------0-----------0-|
B----------0-----------3-|-------0-----------0----|
G-------0-----------2----|----0-----------0-------|
D----0-----------0-------|-------------0----------|
A------------------------|------------------------|
E-3-----------2----------|-0----------------------|

 C                         C            G/B         Am7         D7/F#
e-------------0----------|------------------------|------------------------|
B-------1-----------1h>3-|-------5-----------3----|-------1-----------1----|
G----0-----0-----0-------|----0-----0-----0-----0-|----0-----0--------2----|
D------------------------|------------------------|----------------0-----0-|
A-3----------------------|-3-----------2----------|-0----------------------|
E------------------------|------------------------|-------------2----------|

 G                        G
e-----------------------|-------------------------|
B------------0----------|-------------0-----------|
G------0-----------0----|-------0-----------0-----|
D---0-----0-----0-----0-|----0-----0-----0-----0--|
A-----------------------|-------------------------|
E-3---------------------|-3-----------------------|






Solo:

   (G)          (D/F#)      (Em)       (Bm/D)        (C)
e-7-----7-----5-----5----|-3-----3-----2--3-----0-|------------0----------|
B----------------3-----3-|----0-----0--------3----|------1-----------1h>3-|
G----7-----7-------------|------------------------|---0-----0-----0-------|
D-5-----------4----------|-2-----------0----------|-----------------------|
A------------------------|------------------------|-3---------------------|
E------------------------|------------------------|-----------------------|

  (C)          (G/B)       (Am7)     (Am7/D)       (G)
e-0-----------------3----|------------------------|-----------------------|
B-------1--3-----------0-|-1--------1--0h>1-------|------------0----------|
G----0-----------0-------|-------0-----------2--0-|------0-----------0----|
D------------------------|----2--------0----------|---0-----0-----0-----0-|
A-3-----------2----------|-0----------------------|-----------------------|
E------------------------|------------------------|-3---------------------|





Outro:

 C           G/B          Am7          D7          G
e------------------------|-------0-----------3----|------------3----------|
B-------5-----------3----|-------1-----------2----|-----------------------|
G----0-----0-----0-----0-|----0-----0-----3-----3-|------0-----0-----0----|
D------------------------|-------------0----------|---0-----0-----0-----0-|
A-3-----------2----------|-0----------------------|-----------------------|
E------------------------|------------------------|-3---------------------|

  Ly - ser  som   guld        För kär-le-kens skull

 C           G/B          Am7          (D7)         G
e------------------------|------------------------|-----------------------|
B-------5-----------3----|-------1-/--------------|-------------0---------|
G----0-----0-----0-----0-|-----0--/---------------|-------0h>2------------|
D------------------------|---2---/----------------|----0------------------|
A-3-----------2----------|-0----/-----------------|-----------------------|
E------------------------|------------------------|-3---------------------|

  Ly - ser  som   guld        För kär-le-kens skull


/Singo
            
Submit corrections

comments powered by Disqus
↑ Back to top | Ted Gardestad Tabs for For Karlekens Skull. Lyrics for acoustic guitar and electric guitar. Tablatures and chords are parodies/interpretations of the original songs. You may use it for private study, scholarship, research or language learning purposes only