» » »

Try Too Hard Tabs (ver.4)

Artists:  A B C D E F G H I J K L M N O P Q R S T U V W X Y Z # 

Try Too Hard Tabs (ver.4)

Teddy Geiger
Rating:
0/5 (0 votes)

Tabs too difficult? Try these video lessons and learn fast.
                (Intro)
this is 100% correct

|-----------------------------------------------------------------5---3-------------|
|----------7-------7----------7---------7-----------7-----8-------------------------|
|--------7-----------7----------7---------7-------7---7-----7-----------------------|
|------7---------7----------7---------7---------7-------7-----7---------------------|
|---5---------4---------------------------------------------------------------------|
|------------------------7---------5---------3--------------------------------------|

or instead of the 5---3 on the E string it may be easier to do this:

|--------------|
|-----10---8---|
|--------------|
|--------------|
|--------------|
|--------------|
            
Tabs too difficult? Try these video lessons and learn fast.




comments powered by Disqus
↑ Back to top | Tablatures and chords are parodies/interpretations of the original songs. You may use it for private study, scholarship, research or language learning purposes only