» » »

Teddy Geiger, Try Too Hard Tabs (ver.3)

Artists:  A B C D E F G H I J K L M N O P Q R S T U V W X Y Z # 

Try Too Hard Tabs (ver.3)

Teddy Geiger Tabs
Rating:
4/5 (8 votes)
Try Too Hard lessons Tabs too difficult? Try these video lessons and learn fast
                enjoi! this is again the only version on the internet i can find! gimme yourt thoughts! 
check out joel plaskett - clueless wonder!
all walk down!!
pick like a mo-fo!
standard tuning.


intro
verse
chorus
verse
chorus
break
chorus
chorus


inro/verse
--------------2------3-----5------|
--3--3--3--3--3----3-----3--------|
--2--2--2--2--2--2------2---------|
--0--0--0--0----------------------|
--5--4--2--0----------------------|
--------------3--3------3---------|

just before chorus:

--------------2------6-----8(9 sounds ok though too)----|
--3--3--3--3--3----3-----3------------------------------|
--2--2--2--2--2--2------2-------------------------------|
--0--0--0--0-----------0--------------------------------|
--5--4--2--0--------------------------------------------|
--------------3--3--------------------------------------|

 chorus:
-----------------------2-3--5--------------------------------|
--3---3--3--3----3--3--3-------------------------------------|
--2---2--2--2----2--2--0-------------------------------------|
--0---2----------0--2--0---------repaeat---------------------|
--5---0----------5--0--2-------------------------------------|
---------2--3----------0-------------------------------------|
(last time through hold E)


break:
(the break comes in after the chorus and you loose the prolonged E, so yuou move from E 
a C) listen carefully!


--0-2-3---0-2-3---repeat----------------------|
--3-------3-----------------------------------|
--0-------0-----------------------------------|
--0-------0-----------------------------------|
--2-------3-----------------------------------|
--0-------------------------------------------|

SO! happy strumming!
            

comments powered by Disqus
↑ Back to top | Teddy Geiger Tabs for Try Too Hard. Lyrics for acoustic guitar and electric guitar. Tablatures and chords are parodies/interpretations of the original songs. You may use it for private study, scholarship, research or language learning purposes only