» » »

Try Too Hard Tabs (ver.1)

Artists:  A B C D E F G H I J K L M N O P Q R S T U V W X Y Z # 

Try Too Hard Tabs (ver.1)

Teddy Geiger
Rating:
4/5 (1 vote)

Hard to play? Try these video lessons and learn fast.
                
This is the part Teddy Plays...there's two guitars in the song so if it doesn't sound 
the same that's the reason

intro & Verse: you're gonna have to figure out the strumming yourself...pretty simple tho

e|-------------------------------|
B|-------------------------------|
G|-----------7---7---4-4-4-4-4---|
D|---7---7---7---7---5-5-5-5-5---|
A|---x---x---x---x---5-5-5-5-5---|
E|--10---9---7---5---3-2-3-2-3---|

e|--------------------------|
B|--------------------------|
G|----------7---7---4-4-x---|
D|--7---7---7---7---5-5-x---|
A|--x---x---x---x---5-5-0---|
E|-10---9---7---5---3-2-0---|

love, life one speaks for the other...
e|------------------------------|
B|------------------------------|
G|----------7---7---4-4-4-4-4---|
D|--7---7---7---7---5-5-5-5-5---|  x2
A|--x---x---x---x---5-5-5-5-5---|
E|-10---9---7---5---3-2-3-2-3---|

Chorus

Did anyone try too hard....
e|---2-------3-------2--0-----3-2-3-2-|
B|---3-------3-------3--3-----3-3-3-3-|
G|---2-------2-------2--2-----0-0-0-0-|   x2
D|---0-------0-------0--0-----0-0-0-0-|
A|---x-------0-------x--x-----0-0-0-0-|
E|---x-------3-------x--x-----2-2-2-2-|


After that it's pretty much repeats..listen to the song and it's pretty easy to figure out

enjoy
            
Hard to play? Try these video lessons and learn fast. | Correct




comments powered by Disqus
↑ Back to top | Tablatures and chords are parodies/interpretations of the original songs. You may use it for private study, scholarship, research or language learning purposes only