» » »

Teddy Geiger, Love Is A Marathon Tabs (ver.1)

Artists:  A B C D E F G H I J K L M N O P Q R S T U V W X Y Z # 

Love Is A Marathon Tabs (ver.1)

Teddy Geiger Tabs
 Rating:
4/5 (4 votes)
Love Is A Marathon lessons Tabs too difficult? Try these video lessons and learn fast
1
                
Tuning: Dropped D

Intro
e|----------------------------------|
B|----------------------------------|
G|----------------------------------|
D|5-------/7-------5-------/7-------|
A|5-------/7-------5-------/7-------|
D|5-------/7-------5-------/7-------|

Verse
e|--------------------------------------------------------------------|
B|--------------------------------------------------------------------|
G|--------------------------------------------------------------------| (x2)
D|4-------7-------5-------4-------7-------5-------9-------7-------5---|
A|5-------7-------5-------5-------7-------5-------9-------7-------5---|
D|0-------7-------5-------0-------7-------5-------9-------7-------5---|

e|-----------------------|
B|-----------------------|
G|-----------------------|
D|2-------5------/7------|
A|2-------5------/7------|
D|2-------5------/7------|

Chorus
e|-----------------------------------------------|
B|-----------------------------------------------|
G|-----------------------------------------------|
D|4-----7-----4-----5-----9-----7-----5----------|
A|5-----7-----5-----5-----9-----7-----5----------|
D|0-----7-----4-----5-----9-----7-----5----------|

e|------------------------------------------|
B|------------------------------------------|
G|------------------------------------------|
D|4-----7-----4-----5-----2-----4-----7-----|
A|5-----7-----5-----5-----2-----5-----7-----|
D|0-----7-----4-----5-----2-----4-----7-----|

Fill (only after 1st chorus)
e|------------------|
B|------------------|
G|------------------|
D|4-----7-----5-----|
A|5-----7-----5-----|
D|0-----7-----5-----|

Bridge
e|----------------------------------------------|
B|----------------------------------------------|
G|----------------------------------------------|
D|4-----2-----5-----2-----5-----7---------------|
A|5-----3-----5-----2-----5-----7---------------|
D|0-----0-----5-----2-----5-----7---------------|

Fill

Solo (the timing has to be right)
e|------------------------------------------------------------|
B|---7----7-----8----8----10-----10---12-12--10-10--8-8--7-7--|
G|/7---/7----/9---/9---/11---/11------------------------------|
D|------------------------------------------------------------|
A|------------------------------------------------------------|
D|------------------------------------------------------------|

e|------------------------(7)10--12---14--12--10--9--10p7---------|
B|7p5------------------(7)10----------------------------10p7------|
G|----7p6----------7h9---------------------------------------9p7~-|
D|--------9p7--7h9------------------------------------------------|
A|----------------------------------------------------------------|
D|----------------------------------------------------------------|


Chorus


end with this note:
e|---|
B|(3)|
G|(2)|
D|-4-|
A|-5-|
D|-0-|


please rate my tab! im sure this is not 100% accurate but i think it sounds okay.
            
Submit corrections

comments powered by Disqus
↑ Back to top | Teddy Geiger Tabs for Love Is A Marathon. Lyrics for acoustic guitar and electric guitar. 1 Tablatures and chords are parodies/interpretations of the original songs. You may use it for private study, scholarship, research or language learning purposes only