» » »

Teddy Geiger, For You I Will (Confidence) Tabs (ver.3)

Artists:  A B C D E F G H I J K L M N O P Q R S T U V W X Y Z # 

For You I Will (Confidence) Tabs (ver.3)

Teddy Geiger Tabs
 Rating:
4/5 (4 votes)
For You I Will (Confidence) lessons Tabs too difficult? Try these video lessons and learn fast
1
                
Intro

  1&a2&a3&a4&a|1&a2&a3&a4&a
E-0-----0-----|0-----------|        
B-0-----0-----|0-----------|      
G-9-----8-----|6-----------| x 2
D-9-----9-----|7-----------|     
A-x-----9-----|7-----------|    
E-9-----7-----|5-----------|  

Verse 1

  1&a2&a3&a4&a|1&a2&a3&a4&a
E-0-----0-----|0-----------|        
B-0-----0-----|0-----------|      
G-9-----8-----|6-----------| x 3  
D-9-----9-----|7-----------|     
A-x-----9-----|7-----------|    
E-9-----7-----|5-----------|      

  1&a2&a3&a4&a|1&a2&a3&a4&a
E-0-----0-----|0-----------|        
B-0-----0-----|0-----------|      
G-9-----8-----|3-----------| x 3  
D-9-----9-----|4-----------|     
A-x-----9-----|4-----------|    
E-9-----7-----|2-----------| 

Chorus 1

  1&a2&a3&a4&a|1&a2&a3&a4&a|1&a2&a3&a4&a
E-0-----0-----|0--0--0-----|0-----0-----|
B-0-----0-----|0--0--0-----|0-----0-----|
G-6-----8-----|9--8--3-----|6-----8-----| 
D-7-----9-----|9--9--4-----|7-----9-----| 
A-7-----9-----|7--6--4-----|7-----9-----| 
E-5-----7-----|0--0--2-----|5-----7-----| 

  1&a2&a3&a4&a|1&a2&a3&a4&a|1&a2&a3&a4&a
E-0--0--0-----|0--0--0-----|0-----------|
B-0--0--0-----|0--0--0-----|0-----------|
G-1--4--6-----|9--8--6-----|6-----------|
D-2--4--7-----|9--9--7-----|7-----------|
A-2--2--7-----|x--9--7-----|7-----------|
E-0--0--5-----|9--7--5-----|5-----------|


Verse 2

  1&a2&a3&a4&a|1&a2&a3&a4&a
E-0-----0-----|0-----------|        
B-0-----0-----|0-----------|      
G-9-----8-----|6-----------| x 3  
D-9-----9-----|7-----------|     
A-x-----9-----|7-----------|    
E-9-----7-----|5-----------|      

  1&a2&a3&a4&a|1&a2&a3&a4&a
E-0-----0-----|0-----------|        
B-0-----0-----|0-----------|      
G-9-----8-----|3-----------| x 3  
D-9-----9-----|4-----------|     
A-x-----9-----|4-----------|    
E-9-----7-----|2-----------|      

Chorus 2

  1&a2&a3&a4&a|1&a2&a3&a4&a|1&a2&a3&a4&a|1&a2&a3&a4&a
E-0-----0-----|0--0--0-----|0-----0-----|0--0--0-----|
B-0-----0-----|0--0--0-----|0-----0-----|0--0--0-----|
G-6-----8-----|9--8--3-----|6-----8-----|9--8--6-----|
D-7-----9-----|9--9--4-----|7-----9-----|9--9--7-----|
A-7-----9-----|7--6--4-----|7-----9-----|x--9--7-----|
E-5-----7-----|0--0--2-----|5-----7-----|9--7--5-----|

  1&a2&a3&a4&a|1&a2&a3&a4&a|1&a2&a3&a4&a|1&a2&a3&a4&a
E-0-----0-----|0--0--0-----|0-----0-----|0--0--0-----|
B-0-----0-----|0--0--0-----|0-----0-----|0--0--0-----|
G-6-----8-----|1--4--3-----|6-----8-----|9--8--6-----|
D-7-----9-----|2--4--4-----|7-----9-----|9--9--7-----|
A-7-----9-----|2--2--4-----|7-----9-----|x--9--7-----|
E-5-----7-----|0--0--2-----|5-----7-----|9--7--5-----|

  1&a2&a3&a4&a
E-0--0--0-----|
B-0--0--0-----|
G-9--8--6-----| x 2
D-9--9--7-----|
A-x--9--7-----|
E-9--7--5-----|

Bridge

  1&a2&a3&a4&a
E-0--0--0--0-0|
B-0--0--0--0-0|
G-13-8--6--2-4| x 2
D-14-9--7--3-5|
A-14-9--7--3-5|
E-5--0--0--0-0|

  1&a2&a3&a4&a
E-0--0--0--0--|
B-0--0--0--0--|
G-13-8--6--2--| x 4
D-14-9--7--4--|
A-14-9--7--4--|
E-0--0--0--0--|

  1&a2&a3&a4&a
E-0-----0-----|
B-0-----0-----|
G-3-----6-----| x 2
D-4-----7-----|
A-4-----7-----|
E-2-----5-----|

  1&a2&a
E-0--0--|
B-0--0--|
G-7--7--|
D-7--6--|
A-x--x--|
E-7--7--|

Chorus 3

  1&a2&a3&a4&a|1&a2&a3&a4&a|1&a2&a3&a4&a|1&a2&a3&a4&a
E-0-----0-----|0--0--0-----|0-----0-----|0--0--0-----|
B-0-----0-----|0--0--0-----|0-----0-----|0--0--0-----|
G-6-----8-----|9--8--3-----|6-----8-----|9--8--6-----|
D-7-----9-----|9--9--4-----|7-----9-----|9--9--7-----|
A-7-----9-----|7--6--4-----|7-----9-----|x--9--7-----|
E-5-----7-----|0--0--2-----|5-----7-----|9--7--5-----|

  1&a2&a3&a4&a|1&a2&a3&a4&a|1&a2&a3&a4&a|1&a2&a3&a4&a
E-0-----0-----|0--0--0-----|0-----0-----|0--0--0-----|
B-0-----0-----|0--0--0-----|0-----0-----|0--0--0-----|
G-6-----8-----|1--4--3-----|6-----8-----|9--8--6-----|
D-7-----9-----|2--4--4-----|7-----9-----|9--9--7-----|
A-7-----9-----|2--2--4-----|7-----9-----|x--9--7-----|
E-5-----7-----|0--0--2-----|5-----7-----|9--7--5-----|

  1&a2&a3&a4&a
E-0--0--0-----|
B-0--0--0-----|
G-9--8--6-----| x 3
D-9--9--7-----|
A-x--9--7-----|
E-9--7--5-----|
            
Submit corrections

comments powered by Disqus
↑ Back to top | Teddy Geiger Tabs for For You I Will (Confidence). Lyrics for acoustic guitar and electric guitar. 1 Tablatures and chords are parodies/interpretations of the original songs. You may use it for private study, scholarship, research or language learning purposes only