>
 >
For You I Will (Confidence) 1

For You I Will (Confidence) 1 Guitar Tabs

Teddy Geiger - For You I Will (Confidence) 1 chords, tabs, tablatures, lyrics

Guitar lessons | Add/correct | Request | Top 50 tabs Artists:  A B C D E F G H I J K L M N O P Q R S T U V W X Y Z 0-9

For You I Will (Confidence) 1 Guitar Tabs – Teddy Geiger

CD, Sheet music, Poster

Do you like For You I Will (Confidence) 1? Share with your friends now
Bass TabsChordsChords v2Chords v3TabsTabs v2Tabs v3
----------------------------------------------------------------------------
                         For You I Will  Teddy Geiger
----------------------------------------------------------------------------

Hey everyone, the other tabs were good, but i heard some differences, if you
see a live performance or his music video you can see some of the chords he's
using.  The bridge probably isn't 100%, but its good enough for me ('til someone
fixes it anyway). Well it's my first tab, so be gentle. Any questions you can

Tuning: EADGBE

INTRO
e|---0---0---0-----0---0---0-------------------------------------------------|
B|---0---0---0-----0---0---0-------------------------------------------------|
G|---9---8---6-----9---8---6-------------------------------------------------|
D|---9---9---7-----9---9---7-------------------------------------------------|
A|---x---9---7-----x---9---7--------------------------------------------------|
E|---9---7---5-----9---7---5-------------------------------------------------|

VERSE
                               "Like you and..."    "tonight I'm not"
e|---0---0---0-----0---0---0------0---0---0------------0---0---0-------------|
B|---0---0---0-----0---0---0------0---0---0------------0---0---0-------------|
G|---9---8---6-----9---8---6------9---9---6------------9---8---3-------------|
D|---9---9---7-----9---9---7------9---9---7------------9---9---4-------------|
A|---x---9---7-----x---9---7------7---6---7------------x---9---4-------------|
E|---9---7---5-----9---7---5------0---0---5------------9---7---2-------------|

CHORUS I
                                  "For you I will"    "For you I will"
e|---0---0---0-0---0------0---0-----0---0-----0---------0---0-----0----------|
B|---0---0---0-0---0------0---0-----0---0-----0---------0---0-----0----------|
G|---6---8---9-9---3------6---8-----9---9-----6---------9---9-----6----------|
D|---7---9---9-9---4------7---9-----9---9-----7---------9---9-----7----------|
A|---7---9---7-6---4------7---9-----7---6-----7---------7---6-----7----------|
E|---5---7---0-0---2------5---7-----0---0-----5---------0---0-----5----------|

*REPEAT VERSE* 


CHORUS II
           "cannonball"                  "For you I will" 
e|---0---0-----0-0---------0------0---0----0---0-----0-----------------------|
B|---0---0-----0-0---------0------0---0----0---0-----0-----------------------|
G|---6---8-----9-9---------3------6---8----1---3-----6-----------------------|
D|---7---9-----9-9---------4------7---9----2---4-----7-----------------------|
A|---7---9-----7-6---------4------7---9----2---4-----7-----------------------|
E|---5---7-----0-0---------2------5---7----0---2-----5-----------------------|
            "but i've"   "try"           "For you I will"
e|---0---0-----0-0---------0------0---0----0---0-----0-----------------------|
B|---0---0-----0-0---------0------0---0----0---0-----0-----------------------|
G|---6---8-----9-9---------3------6---8----1---3-----6-----------------------|
D|---7---9-----9-9---------4------7---9----2---4-----7-----------------------|
A|---7---9-----7-6---------4------7---9----2---4-----7-----------------------|
E|---5---7-----0-0---------2------5---7----0---2-----5-----------------------|
   "For you I will"   "For you I will"    "For you I will"  
e|---0---0------0-------0---0------0--------0---0------0---------------------|
B|---0---0------0-------0---0------0--------0---0------0---------------------|
G|---1---3------6-------1---3------6--------1---3------6---------------------|
D|---2---4------7-------2---4------7--------2---4------7--------------------|
A|---2---4------7-------2---4------7--------2---4------7--------------------|
E|---0---2------5-------0---2------5--------0---2------5--------------------|

BRIDGE PART I (6X) *Not exact, but its close enough for me*

e|---0---0---0---0-----------------------------------------------------------|
B|---0---0---0---0-----------------------------------------------------------|
G|---13--11--8---3-----------------------------------------------------------|
D|---14--12--9---4-----------------------------------------------------------|
A|---14--12--9---4-----------------------------------------------------------|
E|---0---0---0---0----------------------------------------------------------|

BRIDGE PART II (2X)  * switch when he says "do" and at the end "you" *
  
   " Thats what i'll do..."

e|---0----------------0------------------------------------------------------|
B|---0----------------0------------------------------------------------------|
G|---6----------------8------------------------------------------------------|
D|---7----------------9------------------------------------------------------|
A|---7----------------9------------------------------------------------------|
E|---5----------------7------------------------------------------------------|

FINAL CHORUS/ENDING
           "cannonball"                  "For you I will" 
e|---0---0-----0-0---------0------0---0----0---0-----0-----------------------|
B|---0---0-----0-0---------0------0---0----0---0-----0-----------------------|
G|---6---8-----9-9---------3------6---8----1---3-----6-----------------------|
D|---7---9-----9-9---------4------7---9----2---4-----7-----------------------|
A|---7---9-----7-6---------4------7---9----2---4-----7-----------------------|
E|---5---7-----0-0---------2------5---7----0---2-----5-----------------------|
            "but i've"   "try"           "For you I will"
e|---0---0-----0-0---------0------0---0----0---0-----0-----------------------|
B|---0---0-----0-0---------0------0---0----0---0-----0-----------------------|
G|---6---8-----9-9---------3------6---8----1---3-----6-----------------------|
D|---7---9-----9-9---------4------7---9----2---4-----7-----------------------|
A|---7---9-----7-6---------4------7---9----2---4-----7-----------------------|
E|---5---7-----0-0---------2------5---7----0---2-----5-----------------------|
   "For you I will"   "For you I will"      
e|---0---0------0-------0---0------0-----------------------------------------|
B|---0---0------0-------0---0------0-----------------------------------------|
G|---1---3------6-------1---3------6-----------------------------------------|
D|---2---4------7-------2---4------7----------------------------------------|
A|---2---4------7-------2---4------7----------------------------------------|
E|---0---2------5-------0---2------5----------------------------------------|

| /  slide up
| \  slide down
| h  hammer-on
| p  pull-off
| ~  vibrato
| +  harmonic
| x  Mute note





Comments


Popular Teddy Geiger tabs & chords
For You I Will Chords
Our Eyes 2 Chords
Sweeter Than The Truth Chords
These Walls 2 Chords
Try Too Hard Chords
For You I Will (Confidence) 2 Tabs
Try Too Hard Tabs
Always Out To Get Us Ukulele
Possibilities Ukulele
Sweeter Than The Truth Ukulele


Song lyrics



↑ Back to top | Tablatures and chords are parodies/interpretations of the original songs. You may use it for private study, scholarship, research or language learning purposes only
© 2014 AZChords.com Contact us | Privacy policy | DMCA | Add/correct tabs | Request tabs | Top 50 tabs