>
 >
For You I Will (Confidence)

For You I Will (Confidence) Guitar Tabs

Teddy Geiger - For You I Will (Confidence) chords, tabs, tablatures, lyrics

Guitar lessons | Add/correct | Request | Top 50 tabs Artists:  A B C D E F G H I J K L M N O P Q R S T U V W X Y Z 0-9

For You I Will (Confidence) Guitar Tabs – Teddy Geiger

CD, Sheet music, Poster

Do you like For You I Will (Confidence)? Share with your friends now
Bass TabsChordsChords v2Chords v3TabsTabs v2Tabs v3
----------------------------------------------------------------------------
                         For You I Will Ė Teddy Geiger
----------------------------------------------------------------------------

This is my first tab and It is pretty much 100% correct.   I included the lyrics
and the words are match with the appropriate chord changes.  Please enjoy and if
you find anything wrong or have any suggestions please let me know


   Intro
e|---0---0---0-----0---0---0---------------------------------|
B|---0---0---0-----0---0---0---------------------------------|
G|---9---8---6-----9---8---6---------------------------------|
D|---9---9---7-----9---9---7---------------------------------|
A|---x---9---7-----x---9---7---------------------------------|
E|---9---7---5-----9---7---5---------------------------------|

VERSE 1

Iím wandering the streets in a world underneath it all
E|--0--------------------------0------------------------0-|
B|--0--------------------------0------------------------0-|
G|--9--------------------------8------------------------6-|
D|--9--------------------------9------------------------7-|
A|--x--------------------------9------------------------7-|
E|--9--------------------------7------------------------5-|
   Nothing seems to be  Nothing tastes as sweet as what I     Can't Have
E|-0--------------------0----------------------------------0--------|
B|-0--------------------0----------------------------------0--------|
G|-9--------------------8----------------------------------6--------|
D|-9--------------------8----------------------------------7--------|
A|-x--------------------9----------------------------------7--------|
E|-9--------------------7----------------------------------5--------|
   Like you and the way that youíre  twisting your hair round your finger
E|------0----------------------------0-----------------------------0----|
B|------0----------------------------0-----------------------------0----|
G|------9----------------------------9-----------------------------6----|
D|------9----------------------------9-----------------------------7----|
A|------7----------------------------6-----------------------------7----|
E|------0----------------------------0-----------------------------5----|
   Tonight Iím not afraid    to   tell you     What I feel about you
E|---0----------------------------0---------0------------------------|
B|---0----------------------------0---------0------------------------|
G|---9----------------------------8---------3------------------------|
D|---9----------------------------9---------4------------------------|
A|---x----------------------------9---------4------------------------|
E|---9----------------------------7---------2------------------------|

CHORUS 1

 oh IíM GONNA MUSTER EVERY OUNCE OF CONFIDENCE I---have
E|------------0----------------------------------0----------|
B|------------0----------------------------------0----------|
G|------------6----------------------------------8----------|
D|------------7----------------------------------9----------|
A|------------7----------------------------------9----------|
E|------------5----------------------------------7----------|
  and CANNON BALL INTO THE WATER
E|----0-----------0--------0---------------------------------|
B|----0-----------0--------0---------------------------------|
G|----9-----------9--------3---------------------------------|
D|----9-----------9--------4---------------------------------|
A|----7-----------6--------4---------------------------------|
E|----0-----------0--------2---------------------------------|
  oh IíM GONNA MUSTER EVERY OUNCE OF CONFIDENCE I---have
E|-------------0----------------------------------0----------|
B|-------------0----------------------------------0----------|
G|-------------6----------------------------------8----------|
D|-------------7----------------------------------9----------|
A|-------------7----------------------------------9----------|
E|-------------5----------------------------------7----------|
   For   You  I   Will    For    You I   Will (just strum last chord once)
E|-------0----0---0--------------0---0---0-------------------|
B|-------0----0---0--------------0---0---0-------------------|
G|-------1----3---6--------------9---9---6-------------------|
D|-------2----4---7--------------9---9---7-------------------|
A|-------2----4---7--------------7---6---7-------------------|
E|-------0----2---5--------------0---0---5-------------------|

VERSE 2

   Forgive me if I st-stutter   From all of the clutter in  My Head
E|-0----------------------------0---------------------------0-|
B|-0----------------------------0---------------------------0-|
G|-9----------------------------8---------------------------6-|
D|-9----------------------------9---------------------------7-|
A|-x----------------------------9---------------------------7-|
E|-9----------------------------7---------------------------5-|
   Cause I could fall asleep in those eyes Like a waterbed
E|-------0----------------------------0-----------0----------|
B|-------0----------------------------0-----------0----------|
G|-------9----------------------------8-----------6----------|
D|-------9----------------------------9-----------7----------|
A|-------x----------------------------9-----------7----------|
E|-------9----------------------------7-----------5----------|
     Do I seem familiar I crossed you in hallways a thousand times
E|------0-----------------0-------------------------0----|
B|------0-----------------0-------------------------0----|
G|------9-----------------9-------------------------6----|
D|------9-----------------9-------------------------7----|
A|------7-----------------6-------------------------7----|
E|------0-----------------0-------------------------5----|
   No more camofloge I want to be exposed   And not be afraid to fall
E|-0---------------------------0----------------0--------------------|
B|-0---------------------------0----------------0--------------------|
G|-9---------------------------8----------------3--------------------|
D|-9---------------------------9----------------4--------------------|
A|-x---------------------------9----------------4--------------------|
E|-9---------------------------7----------------2--------------------|

CHORUS 2

  oh IíM GONNA MUSTER EVERY OUNCE OF CONFIDENCE I---have
E|-------------0----------------------------------0----------|
B|-------------0----------------------------------0----------|
G|-------------6----------------------------------8----------|
D|-------------7----------------------------------9----------|
A|-------------7----------------------------------9----------|
E|-------------5----------------------------------7----------|
  and CANNON BALL INTO THE WATER
E|----0-----------0--------0---------------------------------|
B|----0-----------0--------0---------------------------------|
G|----9-----------9--------3---------------------------------|
D|----9-----------9--------4---------------------------------|
A|----7-----------6--------4---------------------------------|
E|----0-----------0--------2---------------------------------|
 oh IíM GONNA MUSTER EVERY OUNCE OF CONFIDENCE I---have
E|------------0----------------------------------0----------|
B|------------0----------------------------------0----------|
G|------------6----------------------------------8----------|
D|------------7----------------------------------9----------|
A|------------7----------------------------------9----------|
E|------------5----------------------------------7----------|
   For  You   I   Will  Always want what we can't have
E|-------0----0---0-------------------------------0-----------|
B|-------0----0---0-------------------------------0-----------|
G|-------1----3---6-------------------------------8-----------|
D|-------2----4---7-------------------------------9-----------|
A|-------2----4---7-------------------------------9-----------|
E|-------0----2---5-------------------------------7-----------|
        But I-------------------------------------------------| Got to try
E|------0--------0---------0----------------------------------|
B|------0--------0---------0----------------------------------|
G|------9--------9---------3----------------------------------|
D|------9--------9---------4----------------------------------|
A|------7--------6---------4----------------------------------|
E|------0--------0---------2----------------------------------|
 oh IíM GONNA MUSTER EVERY OUNCE OF CONFIDENCE I---have
E|------------0----------------------------------0----------|
B|------------0----------------------------------0----------|
G|------------6----------------------------------8----------|
D|------------7----------------------------------9----------|
A|------------7----------------------------------9----------|
E|------------5----------------------------------7----------|
  For    You  I   Will    For    You I   Will
E|-------0----0---0--------------0---0---0-------------------|
B|-------0----0---0--------------0---0---0-------------------|
G|-------1----3---6--------------9---9---6-------------------|
D|-------2----4---7--------------9---9---7-------------------|
A|-------2----4---7--------------7---6---7-------------------|
E|-------0----2---5--------------0---0---5-------------------|
  For    You  I   Will    For    You I   Will
E|-------0----0---0--------------0---0---0-------------------|
B|-------0----0---0--------------0---0---0-------------------|
G|-------9----9---6--------------9---9---6-------------------|
D|-------9----9---7--------------9---9---7-------------------|
A|-------7----6---7--------------7---6---7-------------------|
E|-------0----2---5--------------0---0---5-------------------|

BRIDGE Part 1

   For You (sing once)
E|-----0-------0------0-----0------|
B|-----0-------0------0-----0------|
G|-----13------8------6-----2------|   Play 2 times
D|-----14------9------7-----3------|
A|-----14------9------7-----3------|
E|-----0-------0------0-----0------|
   If I could dim the lights in the mall And create a mood, Ya-ah   I would
E|----0----------------------0-----------0------------0-------0-----0-----|
B|----0----------------------0-----------0------------0-------0-----0-----|
G|----13---------------------8-----------6------------2-------13----8-----|
D|----14---------------------9-----------7------------3-------14----9-----|
A|----14---------------------9-----------7------------3-------14----9-----|
E|----15---------------------0-----------0------------0-------0-----0-----|
           shout out your name so it echoes in every room        Yaah
E|-0----0--0--------------0----------0---------------0-----0-----0-----|
B|-0----0--0--------------0----------0---------------0-----0-----0-----|
G|-6----2--13-------------8----------6---------------2-----13----8-----|
D|-7----3--14-------------9----------7---------------3-----14----9-----|
A|-7----3--14-------------9----------7---------------3-----14----9-----|
E|-5----0--0--------------9----------0---------------0-----0-----0-----|

Bridge Part 2

       Thatís what Iíd do              Thatís what Iíd do
E|-0---0---------------0---------0---------------------0------------0--|
B|-0---0---------------0---------0---------------------0------------0--|
G|-6---2---------------3---------6---------------------3------------6--|
D|-7---3---------------4---------7---------------------4------------7--|
A|-7---3---------------4---------7---------------------4------------7--|
E|-0---0---------------2---------5---------------------2------------5--|
   To get through to you  Yaah
E|-------------------0----0----------------------------------|
B|-------------------0----0----------------------------------|
G|-------------------9----8----------------------------------|
D|-------------------9----9----------------------------------|
A|-------------------x----9----------------------------------|
E|-------------------9----7----------------------------------|

CHORUS 3

  oh IíM GONNA MUSTER EVERY OUNCE OF CONFIDENCE I---have
E|-------------0----------------------------------0----------|
B|-------------0----------------------------------0----------|
G|-------------6----------------------------------8----------|
D|-------------7----------------------------------9----------|
A|-------------7----------------------------------9----------|
E|-------------5----------------------------------7----------|
  and CANNON BALL INTO THE WATER
E|----0-----------0--------0---------------------------------|
B|----0-----------0--------0---------------------------------|
G|----9-----------9--------3---------------------------------|
D|----9-----------9--------4---------------------------------|
A|----7-----------6--------4---------------------------------|
E|----0-----------0--------2---------------------------------|
 oh IíM GONNA MUSTER EVERY OUNCE OF CONFIDENCE I---have
E|------------0----------------------------------0----------|
B|------------0----------------------------------0----------|
G|------------6----------------------------------8----------|
D|------------7----------------------------------9----------|
A|------------7----------------------------------9----------|
E|------------5----------------------------------7----------|
   For  You   I   Will  Always want what we can't have
E|-------0----0---0-------------------------------0----------|
B|-------0----0---0-------------------------------0----------|
G|-------1----3---6-------------------------------8----------|
D|-------2----4---7-------------------------------9----------|
A|-------2----4---7-------------------------------9----------|
E|-------0----2---5-------------------------------7----------|
        But I-----(stop on chord) Got to try
E|------0--------0-----------------------0----|
B|------0--------0-----------------------0----|
G|------9--------9-----------------------3----|
D|------9--------9-----------------------4----|
A|------7--------6-----------------------4----|
E|------0--------0-----------------------2----|
 oh IíM GONNA MUSTER EVERY OUNCE OF CONFIDENCE I---have
E|------------0----------------------------------0----------|
B|------------0----------------------------------0----------|
G|------------6----------------------------------8----------|
D|------------7----------------------------------9----------|
A|------------7----------------------------------9----------|
E|------------5----------------------------------7----------|
  For    You  I   Will    For    You I   Will
E|-------0----0---0--------------0---0---0-------------------|
B|-------0----0---0--------------0---0---0-------------------|
G|-------1----3---6--------------9---9---6-------------------|
D|-------2----4---7--------------9---9---7-------------------|
A|-------2----4---7--------------7---6---7-------------------|
E|-------0----2---5--------------0---0---5-------------------|
 For    You  I   Will    For    You I   Will
E|-------0----0---0--------------0---0---0-------------------|
B|-------0----0---0--------------0---0---0-------------------|
G|-------9----9---6--------------9---9---6-------------------|
D|-------9----9---7--------------9---9---7-------------------|
A|-------7----6---7--------------7---6---7-------------------|
E|-------0----2---5--------------0---0---5-------------------|

Ending

   For   You        I        Will (Strum each one slow)
E|-------0----------0--------0-------------------------------|
B|-------0----------0--------0-------------------------------|
G|-------9----------8--------6-------------------------------|
D|-------9----------9--------7-------------------------------|
A|-------x----------9--------7-------------------------------|
E|-------9----------7--------5-------------------------------|





Comments


Popular Teddy Geiger tabs & chords
Bitter 2 Chords
Chemistry Chords
For You I Will Chords
Love Is A Marathon Chords
Our Eyes Chords
For You I Will (Confidence) 2 Tabs
Living For The First Time Ukulele
Our Eyes Ukulele
Sweeter Than The Truth Ukulele
You Ll Be My Heart Ukulele


Song lyrics



↑ Back to top | Tablatures and chords are parodies/interpretations of the original songs. You may use it for private study, scholarship, research or language learning purposes only
© 2014 AZChords.com Contact us | Privacy policy | DMCA | Add/correct tabs | Request tabs | Top 50 tabs