» » »

Teddy Geiger, Bitter Chords (ver.2)

Artists:  A B C D E F G H I J K L M N O P Q R S T U V W X Y Z # 

Bitter Chords (ver.2)

Teddy Geiger Tabs
Rating:
4/5 (1 vote)
Bitter lessons Tabs too difficult? Try these video lessons and learn fast
                -----------------------------------------------------------------------------
-----------------------------------------------------------------------------

Tuning: Standard

Alright, this is my first tab, but I know these chords are 100% correct. 
Also, if you'd like to play these chords exactly as they sound in the recording, 
you will need to bar chord these G, C, Em, and D chords. 
Just listen to the song, and you can tell when he makes the G and C into suspended chords.

e|-----3------------------------------7-------5-----------------------------|
B|-----3------------------------------7-------5-----------------------------|
G|-----4---------------3-------5------9-------7-----------------------------|
D|-----5-------4-------5-------5------9-------7-----------------------------|
A|-----5-------5-------3-------3------7-------5-----------------------------|
E|-----3-------3-------3-------3------7-------5-----------------------------|
       G     Gsus4     Csus4     C      Em      D
You'll also note that the chords start at the END of each "Walk Away".

Beginners, the C should be a C2, because it fits the song better, as well as the Em.

e|----3------| |----3------|
B|----3------| |----3------|
G|-----------| |-----------|
D|----2------| |----2------|
A|----3------| |----2------|
E|-----------| |-----------|           
      C2            Em

Verse:
G                  C
Minutes, turn into hours
    G                 C
And hours, bleed into days
          Em
It's been years now
          D
Since the trouble
    C
You left me
            D
And I wanna say


Chorus:
        G
I'm not bitter
    C
But I've seen better days
        G
I'm not bitter
          C
Is it the better man that always
          G  
Walks away


Verse:
   G
No phone call
          C
Or even a letter
   G
No words
                C
To cause me any pain
          Em
It's been years now
      D
Since anything
      C
Could hurt me
                 D
And through this life
           C
I think my way


Chorus:
  G
I'm not bitter
    C
But I've seen better days
        G
I'm not bitter
          C
Is it the better man that always


Bridge:
          D      C
Walks away
                  D      C
Watch me walk away


Chorus:
        G
I'm not bitter
    C
But I've seen better days
        G
I'm not bitter
            C
I'll be the better man, 
                  G    C  
Watch me walk away


Outro:                   
                  G
Watch me walk away
         C
(I'm Not Bitter)
                  G
Watch me walk away
         C
(I'm Not Bitter)
                  G
Watch me walk away

=============================================================================
            

comments powered by Disqus
↑ Back to top | Teddy Geiger Chords for Bitter. Lyrics for acoustic guitar and electric guitar. Tablatures and chords are parodies/interpretations of the original songs. You may use it for private study, scholarship, research or language learning purposes only