» » »

Rock N Roll Highschool Bass tabs (ver.1)

Artists:  A B C D E F G H I J K L M N O P Q R S T U V W X Y Z # 

Rock N Roll Highschool Bass tabs (ver.1)

Teddybears Sthlm
Rating:
0/5 (0 votes)

Tabs too difficult? Try these video lessons and learn fast.
                ---

Standard Tuning (E, A, D, G)
106bpm


Verse
G|--------------------|-----------------------|
D|-----9----7--9-7----|-----7-----------------|
A|--------9-------9-7-|--------5-7-5-7-7--7-5-|
E|-7-7----------------|-5-5-------------------|


Chorus
G|-----------------|-----------------|-----------------|-----------------|
D|-----------------|-----------------|-----------------|-----------------|
A|-----------------|-----------------|-7-7-7-7-7-7-7-7-|-----------------|
E|-7-7-7-7-7-7-7-7-|-5-5-5-5-5-5-5-5-|-----------------|-7-7-7-7-7-7-7-7-|


End
G|--------------------|-----------------------|---|
D|-----9----7--9-7----|-----7-----------------|---|
A|--------9-------9-7-|--------5-7-5-7-7--7-5-|---|
E|-7-7----------------|-5-5-------------------|-7-|
            
Tabs too difficult? Try these video lessons and learn fast.




comments powered by Disqus
↑ Back to top | Tablatures and chords are parodies/interpretations of the original songs. You may use it for private study, scholarship, research or language learning purposes only