» » »

Cobra Style Tabs (ver.2)

Artists:  A B C D E F G H I J K L M N O P Q R S T U V W X Y Z # 

Cobra Style Tabs (ver.2)

Teddybears Sthlm
Rating:
0/5 (0 votes)

Hard to play? Try these video lessons and learn fast.
                -------------------------------------------------------------------------------
                             COBRASTYLE - Teddybears (feat. Mad Cobra)
-------------------------------------------------------------------------------

I think its 100% but I could be wrong so if you find any thing thats wrong
feel free to tell me
its a realllllly easy song but still really good

Tuning: standard

verse (played 6 times then to chorus, then back again)

e|---------------------------------------------------------|
B|---------------------------------------------------------|
G|-----x---7---7----------x---7--7---x---10----------------|
D|-----x---7---7----------x---7--7---x---10----------------|
A|-----x---5---5----------x---5--5---x---8-----------------|
E|---------------------------------------------------------|


chorus (each chord gets between 8 and 10 strums)

e|---------------------------------------------------------|
B|---------------------------------------------------------|
G|--10---/---12---\---7------------------------------------|
D|--10---/---12---\---7------------------------------------|
A|--8----/---10---\---5------------------------------------|
E|---------------------------------------------------------|


guitar 2 (this is in the background for almost the entire song..it stops at a few places 
as during the chorus)

e|---------------------------------------------------------|
B|---------------------------------------------------------|
G|----7--/---10---\---9------------------------------------|
D|----7--/---10---\---9------------------------------------|
A|----5--/---8----\---7------------------------------------|
E|---------------------------------------------------------|
            
Hard to play? Try these video lessons and learn fast. | Correct




comments powered by Disqus
↑ Back to top | Tablatures and chords are parodies/interpretations of the original songs. You may use it for private study, scholarship, research or language learning purposes only