» » »

Teddybears, Cardiac Arrest Tabs (ver.1)

Artists:  A B C D E F G H I J K L M N O P Q R S T U V W X Y Z # 

Cardiac Arrest Tabs (ver.1)

Teddybears Tabs
 Rating:
4.2/5 (5 votes)
Cardiac Arrest lessons Tabs too difficult? Try these video lessons and learn fast
1
                Teddybears (aka Teddybears STHLM/Stockholm) track Cardiac Arrest from the Devil's Music Album.

Standard Tuneing: EBGDAE for the guitar and GDAE for the bass.

The song is tabbed for both Bass and Guitar. The Bass parts is naturally possible to 
on a guitar aswell. :)

Verse:

Bass:
G||----------------------------------------------------------------|
D||----------------------------------------------------------------|
A||---------------------3-3-3-3-------------------3-3-3-3----------|
E||---3-3---3-3---3-3-----------3-3---3-3---3-3--------------------|


G||----------------------------------------------------------------|
D||----------------------------------------------------------------|
A||---------------------3-3-3-3-------------------3-3-3-3----------|
E||---1-1---1-1---1-1-----------3-3---3-3---3-3--------------------|


Bends during verse:

Guitar:
e||---8---8---8------------13---13---13----------------------------|
B||---8---8---8------------13---13---13----------------------------|
G||---10b-10b-10b----------15b--15b--15b---------------------------|
D||----------------------------------------------------------------|
A||----------------------------------------------------------------|
E||----------------------------------------------------------------|

*Note: Hold the bended sting in place from the first stoke until all 3 strokes are 
for each chord.


Refrain:

Bass:
G||----------------------------------------------------------------|
D||----------------------------------------------------------------|
A||-----------------------------3-3-3-3----------------------------|
E||---3-3-3-3-3-3-3-3--1-1-1-1-------------------------------------|


(choose from these two versions below)

Guitar (Power Chords = Esier):
e||----------------------------------------------------------------|
B||----------------------------------------------------------------|
G||-----------------------------5-5-5-5----------------------------|
D||---5-5-5-5-5-5-5-5--3-3-3-3--5-5-5-5----------------------------|
A||---5-5-5-5-5-5-5-5--3-3-3-3--3-3-3-3----------------------------|
E||---3-3-3-3-3-3-3-3--1-1-1-1-------------------------------------|


Guitar (Full Chords = Harder):
e||---3-3-3-3-3-3-3-3--1-1-1-1--3-3-3-3----------------------------|
B||---3-3-3-3-3-3-3-3--1-1-1-1--3-3-3-3----------------------------|
G||---4-4-4-4-4-4-4-4--2-2-2-2--5-5-5-5----------------------------|
D||---5-5-5-5-5-5-5-5--3-3-3-3--5-5-5-5----------------------------|
A||---5-5-5-5-5-5-5-5--3-3-3-3--3-3-3-3----------------------------|
E||---3-3-3-3-3-3-3-3--1-1-1-1--3-3-3-3----------------------------|

Guitar:

Last Chord:
e||---3------------------------------------------------------------|
B||---3------------------------------------------------------------|
G||---4------------------------------------------------------------|
D||---5------------------------------------------------------------|
A||---5------------------------------------------------------------|
E||---3------------------------------------------------------------|

*Note end the song with one powerful stroke and let ring out.

*Other Notes:
- Listen to the song to make out the timeing.
- At the last refrain the guitar only strikes once every chord. Listen to hear how it's played.

Hope you enjoyed the tab!

/Skabben
            
Submit corrections

comments powered by Disqus
↑ Back to top | Teddybears Tabs for Cardiac Arrest. Lyrics for acoustic guitar and electric guitar. 1 Tablatures and chords are parodies/interpretations of the original songs. You may use it for private study, scholarship, research or language learning purposes only