» » »

Mutated Waffle Chin Tabs (ver.1)

Artists:  A B C D E F G H I J K L M N O P Q R S T U V W X Y Z # 

Mutated Waffle Chin Tabs (ver.1)

Tears Of Blood
Rating:
0/5 (0 votes)

Hard to play? Try these video lessons and learn fast.
                Tears of Blood - Mutated Waffle Chin

Guitarist - Jamie Lee Stamp
 


verse 
  PM--------------------------------------------------------------------|
|--------------------------------------------------------------------------|
|--------------------------------------------------------------------------|
|--------------------------------------------------------------------------|
|--------------------------------------------------------------------------|
|------6-5-6--------6-5-6------6-5-6--------6-5-6------4-3-4--------4-3-4--|
|-5-5--------5-5-5--------5-5--------5-5-5--------3-3--------3-3-3---------|


  PM--------------------|
|----------------------------|
|----------------------------|
|----------------------------|
|----------------------------|
|------3-2-3--------2-1-2----|
|-2-2--------1-1-1-----------|


  
    
||--------------------------------------------------------------------------|
||o-------------------------------------------------------------------------|
||--------------------------------------------------------------------------|
||--------------------------------------------------------------------------|
||o------6-5-6--------6-5-6------6-5-6--------6-5-6------4-3-4--------4-3-4-|
||--5-5--------5-5-5--------5-5--------5-5-5--------3-3--------3-3-3--------|


|--------------------------||
|-------------------------o||
|--------------------------||
|--------------------------||
|------3-2-3--------2-1-2-o||
|-2-2--------1-1-1---------||


    
||--------------------------------------------------------------------------|
||o-------------------------------------------------------------------------|
||--------------------------------------------------------------------------|
||--------------------------------------------------------------------------|
||o-7-7--6-5-6-7-7-7--6-5-6-7-7--6-5-6-7-7-7--6-5-6-5-5--4-3-4-5-5-5--4-3-4-|
||--5-5--------5-5-5--------5-5--------5-5-5--------3-3--------3-3-3--------|


|--------------------------||
|-------------------------o||
|--------------------------||
|--------------------------||
|-4-4--3-2-3-3-3-3--2-1-2-o||
|-2-2--------1-1-1---------||



    
||--------------------------------------------------------------------------|
||o-------------------------------------------------------------------------|
||-------8-7-8--------8-7-8------8-7-8--------8-7-8------6-5-6--------6-5-6-|
||--7-7--8-7-8-7-7-7--8-7-8-7-7--8-7-8-7-7-7--8-7-8-5-5--6-5-6-5-5-5--6-5-6-|
||o-7-7--6-5-6-7-7-7--6-5-6-7-7--6-5-6-7-7-7--6-5-6-5-5--4-3-4-5-5-5--4-3-4-|
||--5-5--------5-5-5--------5-5--------5-5-5--------3-3--------3-3-3--------|


|--------------------------||
|-------------------------o||
|------5-4-5--------4-3-4--||
|-4-4--5-4-5-3-3-3--4-3-4--||
|-4-4--3-2-3-3-3-3--2-1-2-o||
|-2-2--------1-1-1---------||



Chorus
|-----------------------------------|
|-----------------------------------|
|-------------------------3-3-3-----|
|-7-7-7-7-7-7-7-7-5-5-5-5-3-3-3-3-5-|
|-7-7-7-7-7-7-7-7-5-5-5-5-1-1-1-3-5-|
|-5-5-5-5-5-5-5-5-3-3-3-3-------1-3-|


Bridge
    PM----------|  PM--------------|
||------------------------------------||
||o----------------------------------o||
||------------------------------------||
||------------------------------------||
||o------------------------6-6-6-5-6-o||
||--5-5-5-5-5-5-5--5-5-5-5------------||


||------------------------------------||
||o----------------------------------o||
||------------------------------------||
||------------------------------------||
||o------------------------6-6-6-5-6-o||
||--5-5-5-5-5-5-5--5-5-5-5------------||



verse 3   
|--------------------------------------------------------------------------|
|--------------------------------------------------------------------------|
|--------------------------------------------------------------------------|
|--------------------------------------------------------------------------|
|------6-5-6--------6-5-6------6-5-6--------6-5-6------4-3-4--------4-3-4--|
|-5-5--------5-5-5--------5-5--------5-5-5--------3-3--------3-3-3---------|


|----------------------------|
|----------------------------|
|----------------------------|
|----------------------------|
|------3-2-3--------2-1-2----|
|-2-2--------1-1-1-----------|


 
  
|--------------------------------------------------------------------------|
|--------------------------------------------------------------------------|
|--------------------------------------------------------------------------|
|--------------------------------------------------------------------------|
|------6-5-6--------6-5-6------6-5-6--------6-5-6------4-3-4--------4-3-4--|
|-5-5--------5-5-5--------5-5--------5-5-5--------3-3--------3-3-3---------|


|---------------------|
|---------------------|
|---------------------|
|-4-4-4-4--3-3-3-3----|
|-4-4-4-4--3-3-3-3----|
|-2-2-2-2--1-1-1-1----|


||-------------------||-----------------------------------|
||o-----------------o||-----------------------------------|
||-------------------||-----------------------------------|
||--7-----5---4---3--||--7----5-5-5-5--4-4-4-4--3-3-3-3---|
||o-7-----5---4---3-o||--7----5-5-5-5--4-4-4-4--3-3-3-3---|
||--5-----3---2---1--||--5----3-3-3-3--2-2-2-2--1-1-1-1---|
            
Hard to play? Try these video lessons and learn fast. | Correct




comments powered by Disqus
↑ Back to top | Tablatures and chords are parodies/interpretations of the original songs. You may use it for private study, scholarship, research or language learning purposes only