» » »

Tears Of Blood, Kings Will Be Kings Tabs (ver.1)

Artists:  A B C D E F G H I J K L M N O P Q R S T U V W X Y Z # 

Kings Will Be Kings Tabs (ver.1)

Tears Of Blood Tabs
Rating:
0/5 (0 votes)
Hard to play? Try these video lessons and learn fast.
                PM:*
slide down:<
slide up:>
B=bend


2x
e|--------------------------------------------------------|
h|--------------------------------------------------------|
g|--------------------------------------------------------|
d|-----44-55-------------5<4-------44-55------------10<9--|
a|-2-2-22-33-77-99-55-77-3<2---2-2-22-33-77-99-55-77-8<7--|
e|-0-0-------55-77-33-55-------0-0-------55-77-33-55------|
PM * *  *  *  *  *  *  *       * *  *  *  *  *  *  *
e|--------------------------------------------------------|
h|--------------------------------------------------------|
g|--------------------------------------------------------|
d|-----44-55-------------5<4-------44-55-------5<4--------|
a|-2-2-22-33-77-99-55-77-3<2---2-2-22-33-77-99-3<2-2-2-2b-|
e|-0-0-------55-77-33-55-------0-0-------55-77-----0-0----|
PM * *  *  *  *  *  *  *       * *  *  *  *  *     * *

1x
e|--------------------------------------------------------|
h|--------------------------------------------------------|
g|--------------------------------------------------------|
d|-----44-55-------------5<4-------44-55------------10<9--|
a|-2-2-22-33-77-99-55-77-3<2---2-2-22-33-77-99-55-77-8<7--|
e|-0-0-------55-77-33-55-------0-0-------55-77-33-55------|
PM * *  *  *  *  *  *  *       * *  *  *  *  *  *  *
e|--------------------------------------------------------|
h|--------------------------------------------------------|
g|--------------------------------------------------------|
d|-----44-55-------------5<4-------44-55-------5-4--------|
a|-2-2-22-33-77-99-55-77-3<2---2-2-22-33-77-99-3-2-5-4----|
e|-0-0-------55-77-33-55-------0-0-------55-77-----3-2----|
PM * *  *  *  *  *  *  *       * *  *  *  *  *


so mit plek schnell hin und her ^^
gitarre 1

6x
e|--------------|
h|--------------|
g|--------------|
d|-----5----7-5-|
a|--2-3--5-5-3--|
e|-0----3-------|

gitarre 2
2x
e|------------------------------------------------------------|
h|------------------------------------------------------------|
g|-7---------------7----------------7-----7-----7---7-----7---|
d|--10-9-7----------10-9-7-----------10-9--10-9--10--10-9--10-|
a|--------10-9-10-9-------10-9-10-9---------------------------|
e|------------------------------------------------------------|

2x
e|--------------------------------------------------------|
h|--------------------------------------------------------|
g|--------------------------------------------------------|
d|-----44-55-------------5<4-------44-55------------10<9--|
a|-2-2-22-33-77-99-55-77-3<2---2-2-22-33-77-99-55-77-8<7--|
e|-0-0-------55-77-33-55-------0-0-------55-77-33-55------|
PM * *  *  *  *  *  *  *       * *  *  *  *  *  *  *
e|--------------------------------------------------------|
h|--------------------------------------------------------|
g|--------------------------------------------------------|
d|-----44-55-------------5<4-------44-55-------5<4--------|
a|-2-2-22-33-77-99-55-77-3<2---2-2-22-33-77-99-3<2-2-2-2b-|
e|-0-0-------55-77-33-55-------0-0-------55-77-----0-0----|
PM * *  *  *  *  *  *  *       * *  *  *  *  *     * *


1x
e|--------------------------------------------------------|
h|--------------------------------------------------------|
g|--------------------------------------------------------|
d|-----44-55-------------5>4-------44-55------------10>9--|
a|-2-2-22-33-77-99-55-77-3>2---2-2-22-33-77-99-55-77-8>7--|
e|-0-0-------55-77-33-55-------0-0-------55-77-33-55------|
PM * *  *  *  *  *  *  *       * *  *  *  *  *  *  *
e|--------------------------------------------------------|
h|--------------------------------------------------------|
g|--------------------------------------------------------|
d|-----44-55-------------5<4-------44-55-------5-4--------|
a|-2-2-22-33-77-99-55-77-3<2---2-2-22-33-77-99-3-2-5-4----|
e|-0-0-------55-77-33-55-------0-0-------55-77-----3-2----|
PM * *  *  *  *  *  *  *       * *  *  *  *  *


2x
e|--------------------------------------------------------|
h|--------------------------------------------------------|
g|--------------------------------------------------------|
d|--------------------------------------------------------|
a|-2-2-2-2-2-2---------------------2-2-2-2-2-2------------|
e|-0-0-0-0-0-0-kings-will-be-kings-0-0-0-0-0-0-kings-will-|...
PM * *   * *                       * *   * *


2x
e|--------------------------------------------------------------|
h|--------------------------------------------------------------|
g|--------------------------------------------------------------|
d|--------------------------------------------------------------|
a|-2-3-10-4-5--2-3-10-22-4-22-5--2-3-10-4-5--2-3-10-22-4-22-5-2-|
e|-0-1--8-2-3--0-1--8-00-2-00-3--0-1--8-2-3--0-1--8-00-2-00-3-0-|
PM                    **   **                       **   **


5x
e|-------------------------------------------------------------|
h|-------------------------------------------------------------|
g|-------------------------------------------------------------|
d|----------55-----------------------55----------5>4-----------|
a|-22-33-22-33-22-33-22-3>4-22-33-22-33-22-33-22-3>2-----------|
e|-00-11-00----00-11-00-2>3-00-11-00----00-11-00---------------|
PM **  *  *  *  *  *  *     **  *  *  *  *  *  *
1x
e|-------------------------------------------------------------|
h|-------------------------------------------------------------|
g|-------------------------------------------------------------|
d|----------55-----------------------55----------5>4-----------|
a|-22-33-22-33-22-33-22-3>4-22-33-22-33-22-33-22-3>2-5<4-------|
e|-00-11-00----00-11-00-2>3-00-11-00----00-11-00-----3<2-------|
PM **  *  *  *  *  *  *     **  *  *  *  *  *  *


2x
e|--------------------------------------------------------|
h|--------------------------------------------------------|
g|--------------------------------------------------------|
d|--------------------------------------------------------|
a|-2-2-2-2-2-2---------------------2-2-2-2-2-2------------|
e|-0-0-0-0-0-0-kings-will-be-kings-0-0-0-0-0-0-kings-will-|...
PM * *   * *                       * *   * *
            

comments powered by Disqus
↑ Back to top | Tears Of Blood Tabs for Kings Will Be Kings. Lyrics for acoustic guitar and electric guitar. Tablatures and chords are parodies/interpretations of the original songs. You may use it for private study, scholarship, research or language learning purposes only