» » »

Tears Of Blood, Bloodshot Bass tabs (ver.1)

Artists:  A B C D E F G H I J K L M N O P Q R S T U V W X Y Z # 

Bloodshot Bass tabs (ver.1)

Tears Of Blood Tabs
 Rating:
4/5 (4 votes)
Bloodshot lessons Tabs too difficult? Try these video lessons and learn fast
                Bloodshot By Tears Of Blood

Opening

G||----------------------------|
D||----10-7---------10-7-------|
A||-77------11--777------11-8--|  Repeat 8-12x
E||----------------------------|

Verse

G||------------------------|
D||---------999-777--------|
A||-777-999---------77-55--|  Repeat 6x
E||------------------------|

G||------------------------|
D||-----999-777------------|
A||-777---------999-55-77--|  Repeat 6x
E||------------------------|

Electric Guitar Solo

G||----------------------------------|
D||----------------------------------|
A||--------------------3--55---3-55--|  Repeat 4x
E||----------------------------------|

Back To Opener

Verse 2

G||----------------------------|
D||----------------------------|
A||----------------------------|  Repeat 4x (With All)
E||-0-3-0-3-03-0-3-03-0-3------|

Then...

G||------------------------|
D||---------999-777--------|
A||-777-999---------77-55--|  Repeat 6x
E||------------------------|

Ending With Guitar

G||------------------------|
D||------------------------|
A||-777-----555-----000----|  
E||------------------------|

There you go. Now you can play our songs...ENJOY!

By Chris Newbury - Tears Of Blood Bassist
            
Submit corrections

comments powered by Disqus
↑ Back to top | Tears Of Blood Bass for Bloodshot. Lyrics for acoustic guitar and electric guitar. Tablatures and chords are parodies/interpretations of the original songs. You may use it for private study, scholarship, research or language learning purposes only