» » »

Start Of The Breakdown Bass tabs (ver.1)

Artists:  A B C D E F G H I J K L M N O P Q R S T U V W X Y Z # 

Start Of The Breakdown Bass tabs (ver.1)

Tears For Fears
Rating:
0/5 (0 votes)

Tabs too difficult? Try these video lessons and learn fast.
                -------------------------------------------------------------------------------
                             Start of the Breakdown - Tears for fears
-------------------------------------------------------------------------------

This is the tab for the live version of the song, the album version is in a differnt 
confusing but once you listen to it it will fit in.



Tuning:

G|----------------------------------------|
D|----0-------0-0-------0-------0-0-------| x1
A|--------0H3------0H3-----0H3------------|
E|----------------------------------------|

G|--------------------------|
D|--------------------------| x1
A|----0-3-----0-3-----------|
E|---------3-------3--------|

G|--------------------------------------------|
D|---------0------0-0-------0-------0-0-------| x1
A|----0H3-----0H3------0H3-----0H3------------|
E|--------------------------------------------|

G|--------------------------|
D|--------------------------| x1
A|----0-3-----0-3-----------|
E|---------3-------3--------|

G|------5-5-7----10/12-----5-7-------------------------------|
D|----0--------0-------0-------0--------3--------3-----------| x2
A|---------------------------------1-1-----0-1-1-------------|
E|-----------------------------------------------------------|

G|--------------------------------------------|
D|---------0------0-0-------0-------0-0-------| x1
A|----0H3-----0H3------0H3-----0H3------------|
E|--------------------------------------------|

G|--------------------------|
D|--------------------------| x1
A|----0-3-----0-3-----------|
E|---------3-------3--------|

G|--------------------------------------------|
D|---------0------0-0-------0-------0-0-------| x1
A|----0H3-----0H3------0H3-----0H3------------|
E|--------------------------------------------|

G|--------------------------|
D|--------------------------| x1
A|----0-3-----0-3-----------|
E|---------3-------3--------|

G|----11\------------------11\---------------------|
D|----------------0-0-------------------0-0--------| x1
A|---------0H3-----------------0H3-----------------|
E|-------------------------------------------------|

G|--------------------------|
D|--------------------------| x1
A|----0-3-----0-3-----------|
E|---------3-------3--------|

G|------5-5-7----10/12-----5-7-------------------------------|
D|----0--------0-------0-------0--------3--------3-----------| x2
A|---------------------------------1-1-----0-1-1-------------|
E|-----------------------------------------------------------|

G|-----------------------------------|
D|----0----3----0----3----0----3-----| x1
A|-----------------------------------|
E|-----------------------------------|

G|--------------------------------------------|
D|---------0------0-0-------0-------0-0-------| x1
A|----0H3-----0H3------0H3-----0H3------------|
E|--------------------------------------------|

G|----11\------------------11\---------------------|
D|----------------0-0-------------------0-0--------| x1
A|---------0H3-----------------0H3-----------------|
E|-------------------------------------------------|

G|----------------------------------------|
D|----0-------0-0-------0-------0-0-------| x1
A|--------0H3------0H3-----0H3------------|
E|----------------------------------------|

G|-------------------------------|
D|-------------------------------| x1
A|----0-3-----0-3-----0-3--------|
E|---------3-------3-------3-----|

G|------5-5-7----10/12-----5-7-------------------------------|
D|----0--------0-------0-------0--------3--------3-----------| x2
A|---------------------------------1-1-----0-1-1-------------|
E|-----------------------------------------------------------|

G|------5-5-7----10/12----5-7-----------------------------17----|
D|----0--------0-------0-------0--------3--------3--0--3/-------| x1
A|---------------------------------1-1-----0-1-1----------------|
E|--------------------------------------------------------------|

G|------5-5-7----10/12----5-7--------------------------------|
D|----0--------0-------0-------0--------3--------3-----------| x4
A|---------------------------------1-1-----0-1-1-------------|
E|-----------------------------------------------------------|

G|------5-5-7----10/12-----5-7-----------------17-17-19---|
D|----0--------0-------0-------0--------3---3/------------| x1
A|---------------------------------1-1--------------------|
E|--------------------------------------------------------|

G|------5-5-7----10/12----5-7-----------------------------17----|
D|----0--------0-------0-------0--------3--------3--0--3/-------| x1
A|---------------------------------1-1-----0-1-1----------------|
E|--------------------------------------------------------------|

G|------5-5-7----10/12----5-7-----------------------------------|
D|----0--------0-------0-------0--------3-0-3/15--16--17-17-----| x1
A|---------------------------------1-1--------------------------|
E|--------------------------------------------------------------|

G|------5-5-7----10/12----5-7------------------17-17-19---|
D|----0--------0-------0-------0--------3---3/------------| x1
A|---------------------------------1-1--------------------|
E|--------------------------------------------------------|

G|------5-5-7----10/12----5-7-----------------------------------|
D|----0--------0-------0-------0--------3-0-3/15--16--17-17-----| x1
A|---------------------------------1-1--------------------------|
E|--------------------------------------------------------------|

G|------5-5-7----10/12----5-7--------------------------------|
D|----0--------0-------0-------0--------3--------3-----------| x2
A|---------------------------------1-1-----0-1-1-------------|
E|-----------------------------------------------------------|

G|------5-5-7----10/12----5-7----------------------------17-----|
D|----0--------0-------0-------0--------3--------3--0--3/-------| x1
A|---------------------------------1-1-----0-1-1----------------|
E|--------------------------------------------------------------|

G|------5-5-7----10/12----5-7--------------------------------|
D|----0--------0-------0-------0--------3--------3-----------| x1
A|---------------------------------1-1-----0-1-1-------------|
E|-----------------------------------------------------------|

G|------5-5-7----10/12----5-7-----------------|
D|----0--------0-------0-------0--------------| x1
A|---------------------------------1----------|
E|--------------------------------------------|


| /  slide up
| \  slide down
| h  hammer-on
| p  pull-off
| ~  vibrato
| +  harmonic
| x  Mute note
===============================================================================
            
Tabs too difficult? Try these video lessons and learn fast.




comments powered by Disqus
↑ Back to top | Tablatures and chords are parodies/interpretations of the original songs. You may use it for private study, scholarship, research or language learning purposes only