>
 >
Pullin' A Cloud

Pullin' A Cloud Guitar Tabs

Tears For Fears - Pullin' A Cloud chords, tabs, tablatures, lyrics

Guitar lessons | Add/correct | Request | Top 50 tabs Artists:  A B C D E F G H I J K L M N O P Q R S T U V W X Y Z 0-9

Pullin' A Cloud Guitar Tabs – Tears For Fears

CD, Sheet music, Poster

Do you like Pullin' A Cloud? Share with your friends now
Tabs
---------------------------------------------------------------------------
---------------------------------------------------------------------------
Tuning: lower E string tuned up to G

Tears For Fears
Pullin' a Cloud (2004)
(Gail Dorsey/Brian McLeod/Roland Orzabal)

A sweet little acoustic tune, McCartney/Beatly style.
Well worth checking out. Enjoy!

---------------------------------------------------------------------------
TUNING
lower E string tuned up to G

INTRO
e|----------------|----------------|----------------|-----------------|
B|0-1-0/3---3---3-|-----3---3---3--|0-1-0/3---3---3-|-----3---1-0-----|
G|----------------|---0---0---0----|----------------|---0-----------0-|
D|--2--/4---4---4-|--4---4---4---4-|--2--/4---4---4-|--4---4\2--0-----|
A|----------------|----------------|----------------|-----------------|
G|0---0---0---0---|0---0---0---0---|0---0---0---0---|0---0----0---0---|

e|--------0-------|--------0-------|
B|-----1----------|1----1----------|
G|---0-------0----|---0-------0----|
D|--2---2---2---2-|--2---2---2---2-|
A|3---3---3---3---|3---3---3---3---|
G|----------------|----------------|


VERSE 1
e|----------------|----------------|----------------|-----------------|
B|0-1-0/3---3---3-|-----3---3---3--|0-1-0/3---3---3-|-----3---1-0-----|
G|----------------|---0---0---0----|----------------|---0---------0---|
D|--2--/4---4---4-|--4---4---4---4-|--2--/4---4---4-|--4---4\2--0---0-|
A|----------------|----------------|----------------|-----------------|
G|0---0---0---0---|0---0---0---0---|0---0---0---0---|0---0----0-------|

e|--------0-------|--------0-------|
B|-----1----------|-----1----------|
G|---0-------0----|---0-------0----|
D|--2---2---2---2-|--2---2---2---2-|
A|3---3---3---3---|3---3---3---3---|
G|----------------|----------------|

VERSE 2 + CHORUS
e|----------------|----------------|----------------|----------------|
B|0-1-0/3---3---3-|-----3---3---3--|0-1-0/3---3---3-|-----3--1-0-----|
G|----------------|---0---0---0----|----------------|---0--------0---|
D|--2--/4---4---4-|--4---4---4---4-|--2--/4---4---4-|--4---4---0---0-|
A|----------------|----------------|----------------|----------------|
G|0---0---0---0---|0---0---0---0---|0---0---0---0---|0---0---0-------|

e|--------0-------|----------------|----------------|----------------|
B|-----1----------|3----3--1----1--|0-1-0/3---3---3-|-----3---3---3--|
G|---0-------0----|---3-------2----|----------------|---0---0---0----|
D|--2---2---2---2-|--3---3---2---2-|--2-0/4---4---4-|--4---4---4---4-|
A|3---3---3---3---|----------------|----------------|----------------|
G|----------------|3---3---2---2---|0-------0---0---|0---0---0---0---|


Verse 3 + CHORUS
e|----------------|----------------|----------------|----------------|
B|0-1-0/3---3---3-|-----3---3---3--|0-1-0/3---3---3-|-----3--1-0-----|
G|----------------|---0---0---0----|----------------|---0--------0---|
D|--2--/4---4---4-|--4---4---4---4-|--2--/4---4---4-|--4---4---0---0-|
A|----------------|----------------|----------------|----------------|
G|0---0---0---0---|0---0---0---0---|0---0---0---0---|0---0---0-------|

e|--------0-------|----------------|----------------|----------------|
B|-----1----------|3----3--1----1--|0-1-0/3---3---3-|-----3---3------|
G|---0-------0----|---3-------2----|----------------|---0---0---0----|
D|--2---2---2---2-|--3---3---2---2-|--2-0/4---4---4-|--4---4---4-----|
A|3---3---3---3---|----------------|----------------|----------------|
G|----------------|3---3---2---2---|0-------0---0---|0---0---0---0-1-|


MIDDLE 8
e|-------------0--|2----2--2----2--|-------------0--|2----2--2----2--|
B|-----1----------|---1-------1----|1----1----------|---1-------1----|
G|---2-------2----|----------------|---2-------2----|----------------|
D|--2---2---2---2-|--0---0---0---0-|--2---2---2---2-|--0---0---0---0-|
A|----------------|0---0---0---0---|----------------|0---0---0---0---|
G|2---2---2---2---|----------------|2---2---2---2---|----------------|

e|----------------|-----0-----------|---------------|----------------|
B|-----3-------3--|0-------------0--|1-------3------|5-------7-------|
G|---4-------4----|---1--1h21--1----|---------------|----------------|
D|--4---4---4---4-|--2---2----2---2-|---------------|----------------|
A|2---2---2---2---|2---2----2---2---|0-------2------|3-------5-------|
G|----------------|-----------------|---------------|----------------|


INTRO
e|----------------|----------------|----------------|-----------------|
B|0-1-0/3---3---3-|-----3---3---3--|0-1-0/3---3---3-|-----3---1-0-----|
G|----------------|---0---0---0----|----------------|---0-----------0-|
D|--2--/4---4---4-|--4---4---4---4-|--2--/4---4---4-|--4---4\2--0-----|
A|----------------|----------------|----------------|-----------------|
G|0---0---0---0---|0---0---0---0---|0---0---0---0---|0---0----0---0---|

e|--------0-------|--------0-------|
B|-----1----------|1----1----------|
G|---0-------0----|---0-------0----|
D|--2---2---2---2-|--2---2---2---2-|
A|3---3---3---3---|3---3---3---3---|
G|----------------|----------------|


Verse 4 + CHORUS
e|----------------|----------------|----------------|----------------|
B|0-1-0/3---3---3-|-----3---3---3--|0-1-0/3---3---3-|-----3--1-0-----|
G|----------------|---0---0---0----|----------------|---0--------0---|
D|--2--/4---4---4-|--4---4---4---4-|--2--/4---4---4-|--4---4---0---0-|
A|----------------|----------------|----------------|----------------|
G|0---0---0---0---|0---0---0---0---|0---0---0---0---|0---0---0-------|


e|--------0-------|----------------|----------------|----------------|
B|-----1----------|3----3--1----1--|0-1-0/3---3---3-|-----3---3------|
G|---0-------0----|---3-------2----|----------------|---0---0---0----|
D|--2---2---2---2-|--3---3---2---2-|--2--/4---4---4-|--4---4---4---4-|
A|3---3---3---3---|----------------|----------------|----------------|
G|----------------|3---3---2---2---|0---0---0---0---|0---0---0---0---|

OUTRO TURNAROUND
e|----------------|----------------|----------------|
B|3----3--1----1--|0-1-0/3---3---3-|-----3---3------|
g|---3-------2----|----------------|---0---0---0----|
D|--3---3---2---2-|--2--/4---4---4-|--4---4---4---4-|
A|----------------|----------------|----------------|
G|3---3---2---2---|0---0---0---0---|0---0---0---0---|

e|----------------|----------------|
B|3-------1-------|0---------------|
g|3-------2-------|0---------------|
D|3-------2-------|0---------------|
A|----------------|----------------|
G|3-------2-------|0---------------|
  [ritardando]


---------------------------------------------------------------------------

INTRO
| G(maj7) | G(maj7) | G(maj7) | G(maj7) | C | C |

VERSE 1
G(maj7)
Time seems a crazy thing
                                    C
Now that your heart can sing like a child

VERSE 2 + CHORUS
G(maj7)
I know the stars tonight carry a guiding light
         C     Bb Am      G(maj7)
Still so proud pushin' or pullin' a cloud

VERSE 3 + CHORUS
G(maj7)
Driving through driving rain

Just me and Johnny Jane
       C    Bb     Am  G(maj7)
We're okay, we're just pullin' a cloud

MIDDLE 8
Am                     D7
There's a story in the lines of your face
Am                     D7
Never now but not afraid
Bm                     E
With the magic of your smile
    Am   Bm C  D
You make me humble

INTRO
| G(maj7) | G(maj7) | G(maj7) | G(maj7) | C | C |

VERSE 3 + CHORUS
G(maj7)
Baby be wise, stay by my side
         C      Bb Am      G(maj7)
Still so proud, pushin' or pullin' a cloud

OUTRO TURNAROUND
Bb Am      G(maj7)
pushin' or pullin' a cloud
Bb Am      G(maj7)
pushin' or pullin' a cloud
[ritardando]





Comments


Popular Tears For Fears tabs & chords
Change Chords
I Believe Chords
Mad World Chords
Elemental Tabs
Fish Out Of Water Tabs
Goodnight Song Tabs
Shout 3 Tabs
Suffer The Children Tabs
Pale Shelter Ukulele
When In Love Ukulele


Song lyrics



↑ Back to top | Tablatures and chords are parodies/interpretations of the original songs. You may use it for private study, scholarship, research or language learning purposes only
© 2014 AZChords.com Contact us | Privacy policy | DMCA | Add/correct tabs | Request tabs | Top 50 tabs