» » »

Tears For Fears, Mad World Tabs (ver.1)

Artists:  A B C D E F G H I J K L M N O P Q R S T U V W X Y Z # 

Mad World Tabs (ver.1)

Tears For Fears Tabs
 Rating:
4.6/5 (10 votes)
Mad World lessons Tabs too difficult? Try these video lessons and learn fast
                Capoed on first fret. This is my own version and I think it's the best sounding guitar
for this song. Let ring for all of it and play it with your fingers. For the chorus, you


Intro/Chorus

        ---7-----------------0---------|
        -8---7-8-5-7-3-2-------------2-|
        -----------------2-------2-----|
        -------------------------------|
        -----------------0-------------|
        -0-------0---------------------|

        ---7------------------0-------0-|
        -8---7-8-5---7-8-10-------2-----|
        --------------------------------|
        --------------------------------|
        -----------------0--------------|
        -0------------------------------|

Verses(let all ring)

        -------------------------------------------------------------------|
        -----0-------0-------3-------3-----------------------5-------5-----|
        -----0-------0-------4-------4-------2-------2-------6-------6-----|
        -2-------2-------5-------5-----------4-------4---7-------7---------|
        ---------------------------------5-------5-------------------------|
        -------------------------------------------------------------------|

Pre-Chorus

        --------------------------------|
        -----0-------0-------10------10-|
        -----0-------0-------9-------9--|
        -2-------2-------7-------7------|
        --------------------------------|
        --------------------------------|
            
Submit corrections

comments powered by Disqus
↑ Back to top | Tears For Fears Tabs for Mad World. Lyrics for acoustic guitar and electric guitar. Tablatures and chords are parodies/interpretations of the original songs. You may use it for private study, scholarship, research or language learning purposes only