» » »

Tears For Fears, Mad World Bass tabs (ver.1)

Artists:  A B C D E F G H I J K L M N O P Q R S T U V W X Y Z # 

Mad World Bass tabs (ver.1)

Tears For Fears Tabs
 Rating:
4/5 (4 votes)
Mad World lessons Tabs too difficult? Try these video lessons and learn fast
                -------------------------------------------------------------------------------
-------------------------------------------------------------------------------


Tuning: E-A-D-G (standard)

This is my first tab (been playing bass for only 1 month) so it could be wrong...

I tried out a few of the guitar tabs for this song on the site but they weren't very 

Verse (runs straight into chorus)
G|--------------------------------------------------------|
D|-0-0-3-3-0-0---7-7-7-3---5-5-5-2---5-5-5-3-2-0----------|
A|--------------------------------------------------------|
E|--------------------------------------------------------|

Chorus
G|--------------------------------------------------------|
D|-0-0-3-3-7-7-9-5---5--9-9-5-5-0~------------------------|
A|--------------------------------------------------------|
E|--------------------------------------------------------|

G|--------------------------------------------------------|
D|-0-0-3-3-7-7-9-5---5--9-9-5-5-0~------------------------|
A|--------------------------------------------------------|
E|--------------------------------------------------------|


G|--------------------------------------------------------|
D|-3~--0~--0-3-5-3-0~-------------------------------------|
A|--------------------------------------------------------|
E|--------------------------------------------------------|


| /  slide up
| \  slide down
| h  hammer-on
| p  pull-off
| ~  vibrato
| +  harmonic
| x  Mute note
===============================================================================
            
Submit corrections

comments powered by Disqus
↑ Back to top | Tears For Fears Bass for Mad World. Lyrics for acoustic guitar and electric guitar. Tablatures and chords are parodies/interpretations of the original songs. You may use it for private study, scholarship, research or language learning purposes only