» » »

Laid So Low Tabs (ver.1)

Artists:  A B C D E F G H I J K L M N O P Q R S T U V W X Y Z # 

Laid So Low Tabs (ver.1)

Tears For Fears
Rating:
0/5 (0 votes)

Hard to play? Try these video lessons and learn fast.
                / - slide up
\ - slide down
x - ghost note
p - pull-off
h - hammer-on
b - bend
r - release bend
= - hold bend

This is one good song... put your 5-way selector switch toward you for the 
tone and(if you have it) put a tube-amp sounding distortion behind it. I'm 
not going to do the verses or that bridge part because either i couldn't 
hear the guitar in it or there is no guitar in it but i am doing the Intro, 
Chorus, and Solo. Watch out for the timing and before you play it make sure 
you follow along the tab with the song to make sure you've got the timing 
for it.

_________INTRO__________

|----------------|
|--------11------|
|3-3-----11------|
|3-3-----11------|Those are 11's not 1's.
|1-1-----9-------|
|----------------|


 WITH DELAY
|-------------------9h11---------9h11b(13)-11\------------|
|11~-11~-11~-11~-11---------------------------------------|
|---------------------------------------------------------|
|---------------------------------------------------------|
|---------------------------------------------------------|
|---------------------------------------------------------|



_________CHORUS_________

|--------------------------------------------------------------|
|-------------------------------11-----------------------------|
|3-3----------------------------11-----------------------------|
|3-3----------------------------11-----------------------------|
|1-1----------------------------9------------------------------|
|--------------------------------------------------------------|
     Into that void of silence.    Where we cry without sound.

|-----------------------------9h11-----------9h11b(13)-11---------------|
|-11-11-11-11-11-11-11-11-11--------------------------------------------|
|-----------------------------------------------------------------------|
|-----------------------------------------------------------------------|
|-----------------------------------------------------------------------|
|-----------------------------------------------------------------------|
      Where tears roll down. Where tears roll down

|-----------------------------------------------------------------------|
|-----------------------------------------------------------------------|
|-13--------------------------------------------------------------------|
|--------------------------------13b(15)-13b(15)-13b(15)-13p11h13~~~~~~~|
|-----------------------------------------------------------------------|
|-----------------------------------------------------------------------|
      And when your mothers violence

|--------------------------------------------|
|--------------------------------------------|
|--------------------------------------------|
|~~~~~~~-----------------------11-13-13~~~~--|
|---------------------------13---------------|
|--------------------------------------------|
 Search your soul underground

|-----------------------------------------------------------------------|
|-----------------------------------------------------------------------|
|-----------------------------------------------------------------------|
|-------------------------11-13b(15)-13---------------------------------|
|-------------------11/13----------------13-----------------------------|
|-----------------------------------------------------------------------|
Where tears roll down. Where tears  roll down.



THEN YOU WAIT THROUGH THE VERSE AND THEN PLAY ANOTHER CHORUS AND THEN THERE'S
A BREAKDOWN PART AND THEN THERES THE SOLO!!!!!!!!!

______SOLO________
                      still bending V
|-----------------------------------------------------------------------|
|19b(21)r---------------------------------------------------------------|
|-----------20b(22)--r20p18-20b(22)====(22)r20p18-20b(22)-18------------|
|------------------------------------------------------------20---------|
|-----------------------------------------------------------------------|
|-----------------------------------------------------------------------|

....FIRST GUITAR....     ....SECOND GUITAR....   
|-----------------------------------------------------------------------|
|-----------------------------------------------------------------------|
|-------------------------/10\--/8\--/6\--------------------------------|
|---------------------------x----x----x---/8\---------------------------|
|18b(20)r18--16-----------/-8\--/6\--/4\---x----------------------------|
|----------------18-----------------------/6\---------------------------|

THEN YOU PLAY THE CHORUS AGAIN AND ALSO REPEAT THE NECESSARY PARTS THAT I 
GAVE YOU.

HOPE YOU HAVE FUN WITH THIS GREAT TUNE!!
            
Hard to play? Try these video lessons and learn fast. | Correct




comments powered by Disqus
↑ Back to top | Tablatures and chords are parodies/interpretations of the original songs. You may use it for private study, scholarship, research or language learning purposes only