>
 >
Cold

Cold Bass Tabs

Tears For Fears - Cold chords, tabs, tablatures, lyrics

Guitar lessons | Add/correct | Request | Top 50 tabs Artists:  A B C D E F G H I J K L M N O P Q R S T U V W X Y Z 0-9

Cold Bass Tabs – Tears For Fears

CD, Sheet music, Poster

Do you like Cold? Share with your friends now
Bass TabsChordsTabsUkulele
SONG NAME - COLD Tears for Fears 
-------------------------------------------------------------------------------

Tuning: Standard
 
  Intro

G|-------------------------------------------------------------------------|
D|-------------------------------------------------------------------------|
A|-4-4-4-4-4-4-4-4-5-5-5-5-5-5-5-5-77-7-77-7-----------77-7-77-7-----------|
E|-------------------------------------------33-3-33-3-----------33-3-33-3-|

G|-------------------------------------------------------------------|
D|--------------------------------------------66--------------66-----|
A|-77-7-77-7------------------------------66------99------66------99-|
E|-----------33-3-33-3-5-5-5-5-5-5-5--77--------------77-------------|

                   
G|---------------------------------|
D|---------66--------------66------|
A|-----66------99------66------99--|
E|-77--------------77--------------|
                                                        
  Verse
  
G|-----------------------------------------------------------------|
D|---------66--------------66--------------66--------------66------|
A|-----66------99------66------99------66------99------66------99--|
E|-77--------------77--------------77--------------77--------------|
 the coldest shoulder cast in metal 
                                                                        
                                        
G|----------------------------------------------------------------|
D|-------------------------55-------------------------------------|
A|----------------------44----88----------------------------------|
E|-5-5-5-5-5-5-5-5--55------------5-5-5-5-5-5-5-5-5-5-5-5-5-5-5-5-|

                   
G|-----------------------------------------------------------------|
D|---------66--------------66--------------66--------------66------|
A|-----66------99------66------99------66------99------66------99--|
E|-77--------------77--------------77--------------77--------------|

G|-------------------------------------------------|
D|--------------------------55---------------------|
A|----------------------44------88------------------|
E|-5-5-5-5-5-5-5-5--55-------------5-5-5-5-5-5-5-5-|

 Play after second time playing verse 

G|-------------------------------------|
D|-------------------------------------|
A|-------------------5-5-5-5-5-5-5-5-5-|
E|-9-9-9-9-9-9-9-9-9-------------------|

  Chorus

G|------------------------------------------------------------------------------|
D|------------------------------------------------------------------------------|
A|-77-7-77-7-----------77-7-77-7------------77-7-77-7---------------------------|
E|-----------33-3-33-3-----------33-3-33-3------------33-3-33-3-5-5-5-5-5-5-5-5-|
  cold, been excommunicated
  
G|----------------------------------------------------------------|
D|---------66--------------66--------------66--------------66-----|
A|-----66------99------66------99------66------99------66------99-|
E|-77--------------77--------------77--------------77-------------|
  
  
  Bridge
 
G|-----------------------------------------------------------|
D|--------------------------------------------------44-55-66-|
A|-------------------4-4-5-5-6-6-7-7-7-7-7-7-7-7-55----------|
E|-7-7-7-7-7-7-7-5-5-----------------------------------------|
  you can't fight the fear

G|-----------------------------------------------------------------------|
D|-----------------------------------------------------------------------|
A|-------------------4-4-5-5-6-6-7-7-7-7-7-7-7-7-9-9-9-9-10-10-10-10-10--|
E|-7-7-7-7-7-7-7-5-5-----------------------------------------------------|
 
G|---------------------------------------------------------------------------------|
D|---------66--------------66--------------66--------------66----------------------|
A|-----66------99------66------99------66------99------66------99------------------|
E|-77--------------77--------------77--------------77--------------5-5-5-5-5-5-5-5-|
                                                                     with my blood

G|--------------------------------------------------|
D|-------55-----------------------------------------|
A|----44----88--------------------------------------|
E|-55----------5-5-5-5-5-5-5-5-5-5-9-9-9-9-9-9-9-9--|

 Chorus 2
  
G|-------------------------------------------------------------------------------|
D|-------------------------------------------------------------------------------|
A|-77-7-77-7-----------77-7-77-7------------77-7-77-7----------------------------|
E|-----------33-3-33-3-----------33-3-33-3-------------33-3-33-3-5-5-5-5-5-5-5-5-|
  cold

G|-------------------------------------------------------------------------------|
D|-------------------------------------------------------------------------------|
A|-77-7-77-7-----------77-7-77-7------------77-7-77-7----------------------------|
E|-----------33-3-33-3-----------33-3-33-3-------------33-3-33-3-5-5-5-5-5-5-5-5-|

  Outro

G|-------------------------------------------------------|
D|-------------------------------------------------------|
A|-77-7-77-7------------77-7-77-7--------------77-7-77-7-|
E|-----------33-3-33-3------------33-3-33-3-33-----------|
  stone cold, stone cold
  
G|-------------------------------------------------------|
D|-------------------------------------------------------|
A|----------------4-5-6-8-6-5----------------------------|
E|-33-3-33-3-33-5-------------7--------------------------|
  

 
 
  intro
| verse
| chorus
| verse
  chorus
| bridge
  chorus 2
  outro 
| 
===============================================================================





Comments


Popular Tears For Fears tabs & chords
Head Over Heels 4 Bass Tabs
Memories Fade Bass Tabs
Shout Bass Tabs
Mad World 4 Chords
The Hurting Chords
Women In Chains Chords
Head Over Heels Intro Tabs
Mad World 1 Tabs
Sowing The Seeds Of Love Tabs
When In Love Tabs


Song lyrics



↑ Back to top | Tablatures and chords are parodies/interpretations of the original songs. You may use it for private study, scholarship, research or language learning purposes only
© 2014 AZChords.com Contact us | Privacy policy | DMCA | Add/correct tabs | Request tabs | Top 50 tabs