» » »

Broken Bass tabs (ver.1)

Artists:  A B C D E F G H I J K L M N O P Q R S T U V W X Y Z # 

Broken Bass tabs (ver.1)

Tears For Fears
Rating:
0/5 (0 votes)
Tabs too difficult? Try these video lessons and learn fast.
                -------------------------------------------------------------------------------
                             Broken - Tears for Fears 
-------------------------------------------------------------------------------

Tuning:

Intro bass solo

G|---------------------------------------------------------|
D|------0000---/7---0000----/7---0000----/7---0000---------| x1
A|----7-------0----7-------0----7-------0----7-------------|
E|---------------------------------------------------------|

G|---------------------------------------------------------|
D|-------/7------------7----------7----------7-------------| x1
A|----0------00000-0-0---0000-0-0---0000-0-0---0000-0-0----|
E|---------------------------------------------------------|

G|---------------------------------------------------------|
D|------0000---/7---0000----/7---0000----/7---0000---------| x1
A|----7-------0----7-------0----7-------0----7-------------|
E|---------------------------------------------------------|

G|---------------------------------------------------------|
D|-------/7------------7----------7----------7-------------| x1
A|----0------00000-0-0---0000-0-0---0000-0-0---0000-0-0----|
E|---------------------------------------------------------|

G|---------------------------------------------------------|
D|------0000---/7---0000----/7---0000----/7---0000---------| x1
A|----7-------0----7-------0----7-------0----7-------------|
E|---------------------------------------------------------|

G|---------------------------------------------------------|
D|-------/7------------7----------7----------7-------------| x1
A|----0------00000-0-0---0000-0-0---0000-0-0---0000-0-0----|
E|---------------------------------------------------------|

bridge

G|-----------------------------------|
D|-----------------------------------| x1
A|-----3-------5-------3------5------|
E|-----------------------------------|

verse
guitar solo

G|----------------------------------------------------------------------|
D|----------------------------------------------------------------------| x1
A|-----------8--10-0---------8--10-0---------8-10-0---------8-10-0-----|
E|---12-11-11---------12-11-11--------12-11-11-------12-11-11-----------|

G|----------------------------------------|
D|----------------------------------------| x2
A|------0---0--------------0---0----------|
E|---8---7---5H7-3-5/8---7---5H7-55-------|

G|----------------------------------------------------------------------|
D|----------------------------------------------------------------------| x1
A|-----------8--10-0----------8--10-0---------8-10-0---------8-10-0-----|
E|---12-11-11---------12-11-11--------12-11-11-------12-11-11-----------|

G|----------------------------------------|
D|----------------------------------------| x2
A|-----0----0--------------0----0---------|
E|---8---7---5H7-3-5/8---7---5H7-55-------|

Chorus

G|----------------------------------------------------------------------|
D|----------------------------------------------------------------------| x1
A|-----------8--10-0----------8--10-0---------8-10-0---------8-10-0-----|
E|---12-11-11---------12-11-11--------12-11-11-------12-11-11-----------|

G|----------------------------------------|
D|----------------------------------------| x2
A|-----0---0---------------0---0----------|
E|---8---7---5H7-3-5/8---7---5H7-55-------|

G|----------------------------------------------------------------------|
D|----------------------------------------------------------------------| x1
A|-----------8--10-0----------8--10-0---------8-10-0---------8-10-0-----|
E|---12-11-11---------12-11-11--------12-11-11-------12-11-11-----------|

G|----------------------------------------|
D|----------------------------------------| x2
A|-----0---0---------------0----0---------|
E|---8---7---5H7-3-5/8---7---5H7-55-------|

outro

G|-----------------------------------|
D|-----------------------------------| x1
A|-----3-------5-------3------5------|
E|-----------------------------------|



| /  slide up
| \  slide down
| h  hammer-on
| p  pull-off
| ~  vibrato
| +  harmonic
| x  Mute note
===============================================================================
            
Tabs too difficult? Try these video lessons and learn fast.


comments powered by Disqus
↑ Back to top | Tablatures and chords are parodies/interpretations of the original songs. You may use it for private study, scholarship, research or language learning purposes only