» » »

Tears For Fears, Break It Down Again Tabs (ver.1)

Artists:  A B C D E F G H I J K L M N O P Q R S T U V W X Y Z # 

Break It Down Again Tabs (ver.1)

Tears For Fears Tabs
 Rating:
4/5 (4 votes)
Break It Down Again lessons Tabs too difficult? Try these video lessons and learn fast
                                              here we go
--8-------8------8-------8---------------|
----10------10-----10------10------------|
----10------10-----10------10------------|
-----------------------------------------|chord = c
-----------------------------------------|
-----------------------------------------|


                            break it down again
---------------------------------------------------------------|
--3---3---------3---3-------3---3-----------------3---3--------|
----5---5---------5---5-------5---5-----------------5---5------|chord= c
----5---5---------5---5-------5---5-----------------5---5------|
---------------------------------------------------------------|

---------------------------------------------------------------

                       so those are my dreams
-------------------------------------------------------------------|
-------------------------------------------------------------------|
------2------2-----------------------------------------------------|chord=Am
---2-------2-------------------------------------------------------|
--------1------1---------------------------------------------------|
-------------------------------------------------------------------|

                  and these are my eyes
---3----3---------------------------------------------------------|
-----5----5-------------------------------------------------------|
-----5----5-------------------------------------------------------|
------------------------------------------------------------------|chord=G
------------------------------------------------------------------|
------------------------------------------------------------------|

         stand tall like a man          head strong like a horse
---------------------------------------------------------------|
--3---3---------3---3-------3---3------------------------------|
----5---5---------5---5-------5---5----------------------------|chord= c
----5---5---------5---5-------5---5----------------------------|
---------------------------------------------------------------|
---------------------------------------------------------------|

                   when it's all mixed up
--------------------------------------------------------------------|
-------------------------------------------3------------------------|
------2------2-------------------------------2----------------------|chord=Am
---2-------2-------------------------------3------------------------|
--------1------1--------------------------------1-------------------|
--------------------------------------------------------------------|


           better break it down again
---------------------------------------------------------------|
--3---3-------------------------------------3---3--------------|
----5---5-------------------------------------5---5------------|chord= c
----5---5-------------------------------------5---5------------|
---------------------------------------------------------------|
---------------------------------------------------------------|

           it's in the way your always hiding from the light
---------------------------------------3--------------------------|
-----3------------------------------------------------------------|
-------2----------------------------------------------------------|
-----3------------------------------------------------------------|
----------1-----------------------------------1-------------------|
----------1-----------------------------3-------------------------|

    see for your-self you have been sitting on a time bomb
-------------------------------------------------3----------------|
---------------------------------------------------5--------------|
----2----------------------------------------------5--------------|
------------------------------------------------------------------|
--------1---------------------------------------------------------|
------------------------------------------------------------------|

      no revolution, maybe someone somewhere else
---------------------------------------3--------------------------|
-----3------------------------------------------------------------|
-------2----------------------------------------------------------|
-----3------------------------------------------------------------|
----------1-----------------------------------1-------------------|
----------1-----------------------------3-------------------------|


    can show you something new about you and your inner song
-------------------------------------------------3----------------|
---------------------------------------------------5--------------|
----2----------------------------------------------5--------------|
------------------------------------------------------------------|
--------1---------------------------------------------------------|
------------------------------------------------------------------|

      and all the love and all the love in the world
---------------------------------------3--------------------------|
-----3------------------------------------------------------------|
-------2----------------------------------------------------------|
-----3------------------------------------------------------------|
----------1-----------------------------------1-------------------|
----------------------------------------3-------------------------|
            
Submit corrections

comments powered by Disqus
↑ Back to top | Tears For Fears Tabs for Break It Down Again. Lyrics for acoustic guitar and electric guitar. Tablatures and chords are parodies/interpretations of the original songs. You may use it for private study, scholarship, research or language learning purposes only