» » »

Teardrop Explodes, Reward Tabs (ver.1)

Artists:  A B C D E F G H I J K L M N O P Q R S T U V W X Y Z # 

Reward Tabs (ver.1)

Teardrop Explodes Tabs
 Rating:
4/5 (4 votes)
Reward lessons Tabs too difficult? Try these video lessons and learn fast
                REWARD by THE TEARDROP EXPLODES

This song is almost completely played by only the bass, horns and keyboard so there's hardly
 any actual chords.  So I've just tabbed the bass parts out and written the implied chords
 (shown in brackets) The verse alternates between implying D5 and Dm7.  Sometimes the keyboard
 definitely plays D5 (xx023x) then a guitar or trumpet comes in with Dm7 over the top.


Main bass and keyboard riff (played throughout verses)
 
 (D5) 
 -----------2-----|-----------2-----|--
 -----3--5--------|-----3--5--------|--
 --5-----------3--|-5-5----------3--|--
 -----------------|-----------------|--

______
 
Intro:

   F   Em/G D/A   C    D5 Em   
 --------------|-------------|--
 --3-----5--7--|-------------|--
 --------------|--3----5--7--|--
 --------------|-------------|--
  
(D5 w/main riff x4)

(D5)
Bless my cotton socks I’m in the news
The king sits on his face buttons all askew
All wrapped up the same
All wrapped up the same
They can’t have it
You can’t have it
I can’t have it too
        F     Em/G  D5/A C    D5 Em D5
Until I learn to    ac - cept my re-ward

(D5 w/main riff x4)

(D5 w/main riff)
Princes stand in queues they stand accused
Death in solitude like Howard Hughes
All wrapped up the same
All wrapped up the same
Silence has it
Arrogance has it 
I can have it ooh
Until I 
   
   F   Em/G D/A   C    D5 Em  (D5) 
 --------------|-------------|------
 --3-----5--7--|-------------|------
 --------------|--3----5--7--|-5---
 --------------|-------------|------
   learn to ac-   cept my re - ward

(drums 2 bars)

(D5 w/main riff x4)

(D5)
Suddenly it struck me very clear
Suddenly it struck me very clean
All wrapped up the same
All wrapped up the same
You can’t have it
I can’t have it too
        F     Em/G D/A  C    D5 Em D5
Until I learn to   ac - cept my re-ward
        F     Em/G D/A  C    D5 Em D5
Until I learn to   ac - cept my reward
        F     Em/G D/A  C    D5  Em       
Until I learn to   ac - cept my. I 
        F     Em/G D/A  C    D5  Em 
        learn to   ac - cept my. I

   F   Em/G D/A   C   D5  Em  (D5)  
 --------------|------------|------------|--
 --3-----5--7--|------------|------------|--
 --------------|--3----5--7-|--5----5555-|--
 --------------|------------|------------|--
   learn to ac -  cept my re - ward
            
Submit corrections

comments powered by Disqus
↑ Back to top | Teardrop Explodes Tabs for Reward. Lyrics for acoustic guitar and electric guitar. Tablatures and chords are parodies/interpretations of the original songs. You may use it for private study, scholarship, research or language learning purposes only