» » »

Tea Party, Walk With Me Tabs (ver.1)

Artists:  A B C D E F G H I J K L M N O P Q R S T U V W X Y Z # 

Walk With Me Tabs (ver.1)

Tea Party Tabs
Rating:
0/5 (0 votes)
Walk With Me lessons Tabs too difficult? Try these video lessons and learn fast
                
Tuning: DADACF#
(Note: If you don't want to tune your strings that high you can always
       play it a tone lower; CGCGBbE.  You just won't be able to play 
       along with the CD)

Verse
F#|-------------------|
C |--2-2-2---2--------|
A |--0-0-0---0--------|
D |--0-0-0---0--------|
A |--0-0-0---0--------|
D |--0-0-0---0--------|


Pre-chorus (all of the time you...)
         x3
|--6--4--3--|--4--3--4--3--------------|
|--3--3--3--|--3--3--3--2--------------|
|.(3)-3--3-.|--3--3--3--0-------------.|
|.-0--0--0-.|--0--0--0--0-------------.|
|--0--0--0--|--0--0--0--0--------------|
|--0--0--0--|--0--0--0--0--------------|

Chorus

|--0--0--0--0---0---0--0-------|--0--0--0--0---0---0--0-------|
|--0--0--0--0---0---0--0-------|--0--0--0--0---0---0--0-------|
|.-9-10/13-12---9--10-10--6-5--|--9-10-13-12---9--10-10--5-6--|
|.-0--0--0--0---0---0--0--x-x--|--0--0--0--0---0---0--0--x-x--|
|--9-10/13-12---9--10-10--6-5--|--9-10-13-12---9--10-10--5-6--|
|--0--0--0--0---0---0--0--0-0--|--0--0--0--0---0---0--0--0-0--|

|--0--0--0---0--0---0--0-------|--0--0--0--0---0---0--0-------|
|--0--0--0---0--0---0--0-------|--0--0--0--0---0---0--0-------|
|-12-13/15--13-12--13-13--6-5--|--9-10-13-12---9--10-10----5-.|
|--0--0--0---0--0---0--0--x-x--|--0--0--0--0---0---0--0----x-.|
|-12-13/15--13-12--13-13--6-5--|--9-10-13-12---9--10-10----5--|
|--0--0--0---0--0---0--0--0-0--|--0--0--0--0---0---0--0----0--|

Some of the middle part (I'll do the rest later)

|--0---0--0--0---0--0--0---0--0--0---0---0-------------------------------|
|--0---0--0--0---0--0--0---0--0--0---0---0-------------------------------|
|-10---9-10-12--10-12-13--12-10-12---6---5-------------------------------|
|--0---0--0--0---0--0--0---0--0--0---0---0-------------------------------|
|-10---9-10-12--10-12-13--12-10-12---6---5-------------------------------|
|--0---0--0--0---0--0--0---0--0--0---0---0-------------------------------|

__________________________________________________________________________
__________________________________________________________________________

DADADE version
Intro - Santur arranged for guitar

|--------14----14-------------------------14-15-14-----------------------|
|--12-13----13----13-12-10-12-------12-13----------13-12-10-12-----------|
|------------------------------------------------------------------------|
|------------------------------------------------------------------------|
|------------------------------------------------------------------------|
|------------------------------------------------------------------------|

|------------------------------------------------------------------------|
|-----------10-------------------------4-5-7-5-4-------------------------|
|--10-12-13----13-12-10-9-10---------6-----------6-5-6-------------------|
|------------------------------------------------------------------------|
|------------------------------------------------------------------------|
|------------------------------------------------------------------------|

|-----------------------------------------------------|-------------|
|----4-5-4---4-5-4-5-7-5-4-5-4---4--------4--------4--|--5-4---4-5--|
|--6-------6-------------------6---5----6---5----6----|.-5-5-5-5-5-.|
|-----------------------------------------------------|.-----------.|
|-----------------------------------------------------|-------------|
|-----------------------------------------------------|-------------|

|------------------------------------|-----------|
|------------5-5-5-5-4-4-4-4---------|-----------|
|--5-5-5-6-6-----------------5-5-5-5-|.-5-5-5-5-.|
|------------------------------------|.---------.|
|------------------------------------|-----------|
|------------------------------------|-----------|

This acoustic guitar part is played throughout the whole song.
|------------|
|--0-0-0--0--|
|.-5-5-5--5-.|
|.-0-0-0--0-.|
|--5-5-5--5--|
|--0-0-0--0--|

Pre-chorus (all of the time you were here...)
|-------------------------------------------------------|
|-10--8--7-10--8--7-10--8--7--8--7--8--7----------------|
|--0--0--0--0--0--0--0--0--0--0--0--0--0----------------|
|-10--8--7-10--8--7-10--8--7--8--7--8--7----------------|
|--0--0--0--0--0--0--0--0--0--0--0--0--0----------------|
|--------------------------------------0----------------|
|                                                       |
|--8--6--5--8--6--5--8--6--5--6--5--6--5----------------|these 2 strings
|--0--0--0--0--0--0--0--0--0--0--0--0--0----------------|are optional
|--6--6--6--6--6--6--6--6--6--6--6--6--5----------------|
|--0--0--0--0--0--0--0--0--0--0--0--0--0----------------|
|--0--0--0--0--0--0--0--0--0--0--0--0--0----------------|
|--------------------------------------0----------------|

Here is the chorus tabbed out for two guitars.  You will probably
want to play a mixture of both parts.
|------------------------------------------------------------------|
|--4--5--5/8--7---4---5--5---------4--5--5/8--7---4---5--5---------|
|.-x--x--x----x---x---x--x---------x--x--x----x---x---x--x---------|
|.-4--5--5/8--7---4---5--5---------4--5--5/8--7---4---5--5---------|
|-(0)--------------------------------------------------------------|
|-(0)--------------------------------------------------------------|
|                                                                  |
|------------------------------------------------------------------|
|------------------------------------------------------------------|
|.-3--3--3----3---3---3--3--6--5\--3--3--3----3---3---3--3--5--6\--|
|.-0--0--0----0---0---0--0--x--x---0--0--0----0---0---0--0--x--x---|
|--0--0--0----0---0---0--0--6--5\--0--0--0----0---0---0--0--5--6\--|
|---------------------------0--0----------------------------0--0---|

|-------------------------------------------------------------------|
|---7--8--8/10---8--7---8--8---------4--5--5/8--7---4---5--5--------|
|---x--x--x------x--x---x--x---------x--x--x----x---x---x--x-------.|
|---7--8--8/10---8--7---8--8---------4--5--5/8--7---4---5--5-------.|
|--(0)--------------------------------------------------------------|
|--(0)--------------------------------------------------------------|
|                                                                   |
|-------------------------------------------------------------------|
|-------------------------------------------------------------------|
|---3--3--3------3--3---3--3--6--5\--3--3--3----3---3---3--3----5\-.|
|---0--0--0------0--0---0--0--x--x---0--0--0----0---0---0--0----x--.|
|---0--0--0------0--0---0--0--6--5\--0--0--0----0---0---0--0----5\--|
|-----------------------------0--0------------------------------0---|
            
Submit corrections

comments powered by Disqus
↑ Back to top | Tea Party Tabs for Walk With Me. Lyrics for acoustic guitar and electric guitar. Tablatures and chords are parodies/interpretations of the original songs. You may use it for private study, scholarship, research or language learning purposes only