» » »

Underground Tabs (ver.1)

Artists:  A B C D E F G H I J K L M N O P Q R S T U V W X Y Z # 

Underground Tabs (ver.1)

Tea Party
Rating:
0/5 (0 votes)

Hard to play? Try these video lessons and learn fast.
                PROPS GO TO: (vic)

Underground by The Tea Party
Corrections and additions by Mark Webber   10/11/99
arrenged for E tuning by (vic) 25/12/02

Tuning: E A E A B C   (from the official Tea Party FAQ)


Verse:

main riff

E|----------------------------------------------------------|
B|-----------0~~---------0~~---------0~~--------------------|
G|--------2-----------2-----------2-------------------------|
D|-----2-----------2-----------2----------2--------2~~~-----|
A|--0~~---------2~~---------3~~--------------5-/8-----------|
E|----------------------------------------------------------|

      no, I don't need your redemption
       I  don't need you to deceive me
       I  don't need your forgiveness  (add fill 1a)
       I  only want you to believe me

       do you see me here I'm standing naked
       do you see me here I'm on my knees
fill 1a

E|-------------------------------------------------------|
B|---/10-10-10~~~\5-5-5/8~~\6---/10-10-10~~\5-5-5/8~~\---|
G|-------------------------------------------------------------------|
D|-------------------------------------------------------|
A|-------------------------------------------------------|
E|-------------------------------------------------------|

Chorus

riff 2 : This section uses a few effects like the ones listed above.
Unfortunately not everyone can afford them all including myself.
As you can see each individual note can be played on the three high
strings at the same time, so if you are like me  and poverty stricken
then play the bracketed notes. But if you happen to be wealthy enough to
afford the gadgets then just play the one string.

E|------------------------------------------------|
B|--/12~~-12---12---12\---5--5---/8~~--6----|
G|------------------------------------------------|
D|------------------------------------------|
A|------------------------------------------|
E|------------------------------------------|
    And all my life I've been wandering
..
E|----------------------------------------------|
B|--/12~~-12---12---12\---5--5---/8~~----|
G|----------------------------------------------|
D|---------------------------------------|
A|---------------------------------------|
E|---------------------------------------|
    Looking for teachers with the keys

E|-------------------------------------------------------------------|
B|---12~~-12---13---15~~--13--12--10---8-\-6~--5-/-6-\-5--|
G|------------------------------------------------------------------|
D|--------------------------------------------------------|
A|--------------------------------------------------------|
E|--------------------------------------------------------|
    Nothing found still searching for sound... Underground

Verse 2
main riff (with fill 1a & 1b)

now let me tell you about a story
it's about a man consumed with vice
he's theosophical in nature
and hedonistic in disguise

fill 1b (keyboard arranged for guitar)

E|-8--7h8p7s5----8--7h8p7s5--8--7h8p7s5--10--7h8p7s5-|
B|------------------------------------------------------------------|
A|------------------------------------------------------------------|
E|------------------------------------------------------------------|
A|------------------------------------------------------------------|
E|------------------------------------------------------------------|

Chorus (riff 2)

and all his life he's been wandering
looking for teachers with the keys
nothing found still searching for sound...

Verse

main riff (with fill 1a & 1c)

fill 1c with heavy distortion 

E |------------------------------------------|
B |-------------------------------------------|
G |------------------------------------------|
D |----7----------2---------/5------3-----|
A |----x----------0----------x------x-----|
E |----5----------0---------/3------1-----|
     *up strum


       I don't need your redemption
       I  don't need you to deceive me
       I  don't need your forgiveness  (add fill 1a)
       I  only want you to believe me
       
Chorus (with Riff 2 and Riff 3)

Riff 3 with heavy distortion
E|---------------------------------------|
B|---*----------------------------------|
G|.-------------------------------------.|
D|.-5--5--5--5----7---3/5----3-----.|
A|--x--x--x--x----x---x------x------|
E|--3--3--3--3----5---1/3----1------|

 That all my life I've been wandering
       Looking for teachers with the keys
       
E|-------------------------------------------|
B|--------------------------------------------------|
G|------------------------------------------------|
D|--9--9-10-10/12--7/10-9-7-3---2h3p2----|
A|--x--x--x--x------x---x-x-x------0--------|
E|--7--7--8--8/10---5/8-7-5-1----0h1p2----|

Nothing found still searching for sound... Underground


interlude

E--------------------------------------------------------------------
B--------------------------------------------------------------------
G---------------------------------------------------/9~~-7-7-7~~\-5~-5-5-5/7~/9~-
D-2-2--/10~~--9-9-9~~~\-7--7-7-7~~\-5~~[3]----------------------------
A------------------------------------------------------------------- 
E--------------------------------------------------------------------

E |-----------------------------|
B |--/8--6-5-6~~-5--------------|
G |-----------------7\5/7~-2~~--|
D |-----------------------------|
A |-----------------------------|
E |-----------------------------|


Repeat Chorus

Outro (keyboard arranged for guitar)

C |------------------------------------------------|
B |------------------------------------------------|
A |-----------------------------------7--9--10--13-14--|
E |--------------------6--7--9--10-----------------|
A |-----------5--7--8------------------------------|
E |--5--7--8---------------------------------------|


Note from (vic): this tab was made by Scott James  and
            
Hard to play? Try these video lessons and learn fast. | Correct




comments powered by Disqus
↑ Back to top | Tablatures and chords are parodies/interpretations of the original songs. You may use it for private study, scholarship, research or language learning purposes only