» » »

The River Tabs (ver.3)

Artists:  A B C D E F G H I J K L M N O P Q R S T U V W X Y Z # 

The River Tabs (ver.3)

Tea Party
Rating:
0/5 (0 votes)

Hard to play? Try these video lessons and learn fast.
                The River
Guitar 1

  Verse      pre-chorus                    chorus               bridge after chorus          
|--------|--------|---------------|---------------|------------------------|
|--------|--------|---------------|--10--2--2--2--|------------------------|
|--------|--------|---------------|--10--2--4--2--|------------------------| X2
|--9--9--|--9-----|---------------|--10--2--2--2--|--9--10---7-9-4---------|
|--7--8--|--7--8--|----------5-7--|--8---0--0--0--|--7--8----5-7-2--6-\-3--|
|--0--0--|--0-----|--5-5-7-8------|---------------|-----------------4-\-1--|
Strum clean| distortion

  
|--------------------------------------|------------------------------------|
|--------------------------------------|------------------------------------|
|--------------------------------------|------------------------------------|
|--------------------------------------|------------------------------------|
|--------------------------------------|--------------------------5---------|
|--0-5-7--0-5-7--0-7-8--0-8-10--0-12\--|--0-5-7--0-5-7--0-0-4-5-7---8-7-5---|
   Play throughout solo
 
 
|-----------------------------|-------------------------------------------|
|-----------------------------|-------------------------------------------|
|------------X3---------------|-------------------------------------------|
|-----------------------------|-------------------------------------------|
|-----------------------------|-------------------------------------------|
|--5-7-8-7-5-7-4--1-0--7-8-5--|--5-7-8-7-5-7--4-4-4-4-5-5-5-7-7-7-10-8-7--|


Then chorus over second solo then bridge then back to top part.


                              end
|--------|------------|--------|
|--------|------------|--9--\--|
|-10--2--|--9--7--10--|--9--\--|
|-10--2--|--9--7--10--|--9--\--|
|-8---0--|--7--5--8---|--7--\--|
|--------|------------|--0--\--|
End chords listen to song to know how many times of each and how many to strum

Guitar 2
|-------------------|--------|---------------|
|-------------------|--------|---------------|
|------9-------9----|--9--9--|---------------|
|----9---9---9---9--|--9--9--|----------3-5--|
|--7-------8--------|--7--8--|--3-3-5-7------|
|-------------------|--0-----|---------------|

|-----------------------------------------------------|-----------------------|
|-----------------------------------------------------|-----------------------|
|----------------------------6---7---9----9-/12---10--|-----------------------|
|--7-----7-7-/9-\7---9-\7----7---9---11---11/14---12--|--9--10--7--9--4-------|
|--8-----8-8-/10\8---10\8-----------------------------|--7--8---5--7--2--6\3--|
|-----------------------------------------------------|------------------4\1--|

|-------|--7-7--7h8p7------7---7-7--7h8p7------7---7-7-8--8h11--8--7h8p7------7---|
|-------|--------------10-------------------10----------------------------10------|
|-------|-------------------------------------------------------------------------| 
|--9-\--|-------------------------------------------------------------------------|
|--7-\--|-------------------------------------------------------------------------|
|--0-\--|-------------------------------------------------------------------------|

|------------------------------------------------------------------8--10--8--|
|--10b12---b12-b12-b12---r10---9--10b12---b12-b12---r10---9-10b12------------|
|----------------------------------------------------------------------------| 
|----------------------------------------------------------------------------|
|----------------------------------------------------------------------------|
|----------------------------------------------------------------------------|
  
|--------------------------------------|------------------------------------|
|--------------------------------------|------------------------------------|
|--------------------------------------|------------------------------------|
|--------------------------------------|--------------------------3-2-0-----|
|--------------------------------------|--------------------2-3-5-------3---|
|--0-5-7--0-5-7--0-7-8--0-8-10--0-12\--|--0-5-7--0-5-7--0-0-----------------|

|-----------------------------|-------------------------------------------|
|-----------------------------|-------------------------------------------|
|------------x2---------------|-------------------------------------------|
|------------------------2----|------2---------/7-6-----------------------|
|----2-3-2---2---------5---3--|--3-5---5-3-5-2------7-5------5-7-5---5----|
|--5-------5---4--1-0---------|-------------------------8--8-------8------|
 
                                                               X3     
|------------------------------|-----------------------------------------------|
|------------------------------|--6~~-6--8--8b10r8--6--8--5~~-------8b10r8b10--|
|------------------------------|------------------------------7--6-------------|
|------------------------------|-----------------------------------------------|
|----------------------5-------|-----------------------------------------------|
|--4-4-4-4-5-5-5-7-7-7---8-7---|-----------------------------------------------|


|----------------------------------10/12--10/12--|---------|------------|-------|
|---------------------10--12--14---12/14--12/14--|--10--2--|--9--7--10--|--9-\--|
|-----------10-/-12---10--12--14-----------------|--10--2--|--9--7--10--|--9-\--|
|--7-/-9----12-/-14------------------------------|--10--2--|--9--7--10--|--9-\--|
|--8-/-10----------------------------------------|--8---0--|--7--5--8---|--7-\--|
|------------------------------------------------|---------|------------|--7-\--|
            
Hard to play? Try these video lessons and learn fast. | Correct




comments powered by Disqus
↑ Back to top | Tablatures and chords are parodies/interpretations of the original songs. You may use it for private study, scholarship, research or language learning purposes only