» » »

Tea Party, The Bazaar Tabs (ver.2)

Artists:  A B C D E F G H I J K L M N O P Q R S T U V W X Y Z # 

The Bazaar Tabs (ver.2)

Tea Party Tabs
 Rating:
4/5 (4 votes)
The Bazaar lessons Tabs too difficult? Try these video lessons and learn fast
                The Bazaar
The Tea Party

*sweet_inc*

Tuning - Open G5 (D-G-D-G-G-d)


INTRO  pt1
let ring
|------------------|
|------------------|
|-13---10---12--7--|
|-x-----x---x---x--| play this 3 times
|-13---10---12--7--|
|------------------|
then  pt2
|------------------------------------------------------------|
|------------------------------------------------------------|
|------13----12--10--12--13~~-12-10--12--13---12--13--12--13-|
|------x-----x----x---x---x----------------------------------|
|------13----12--10--12--13~~-12-10--12--13---12--13--12--13-|
|------------------------------------------------------------|

riff 1a
|-----------------------------------------------------|
|-----------------------------------------------------|
|--12-12-12-12-14-10-12-9-7----5-5-5-5-7-3-3-3-2-0----|
|-----------------------------------------------------|
|--12-12-12-12-14-10-12-9-7----5-5-5-5-7-3-3-3-2-0----|
|-----------------------------------------------------|

riff 1b
|-----------------------------------------|
|-----------------------------------------|
|--5-5-5-5-3-5-7---10-10-10-12-9-10-7-----|
|-----------------------------------------|
|--5-5-5-5-3-5-7---10-10-10-12-9-10-7-----|
|-----------------------------------------|

|-----------------------------------------|
|-----------------------------------------|
|--5-5-5-5-3-5-7---5-5-5-5-7-3-3-3-2-0----|
|-----------------------------------------|
|--5-5-5-5-3-5-7---5-5-5-5-7-3-3-3-2-0----|
|-----------------------------------------|

Verse
|---------------------------------------------------------------|
|--------------0--------------0--------------0--------------0---|
|--------------0--------------0--------------0--------------0---|
|--5-5-5-3-5-5----9-9-9-6-5-5----5-5-5-3-5-5----9-9-9-6-5-5-----|
|---------------------------------------------------------------|
|---------------------------------------------------------------|

|------------------------------------------|
|--------------------0-----------------0---|
|--------------------0-----------7-----0---|
|--12-12-12-13-10-12----10-10-10---9-9-----|
|------------------------------------------|
|------------------------------------------|

|-------------------------------------|
|-----------------0--------------0----|
|-----------------0--------------0----|
|--6-6-6-6-10-9-9----6-6-6-3-5-5------|
|-------------------------------------|
|-------------------------------------|

after most verses, it just just riff 1a that is repeated twice

intro pt1 is played 8 times, then pt2 is played once 



lyrics
Silence swimming in a pool of dreams
Beneath its depths the forgotten streams
Above, the city of the evening star
Behind its walls, the grand bazaar
As she walks through its endless maze
Cursing those who mistrust her ways
Please my friend no matter what she sees
Tell my lover come back to me


Doorways spilling out their sombre light
Casting shadows that will raid the night
Along the alleys of her ruling fears
Walk the visions that will cause her tears
Lying still as she wills her glance
Through the eyes of a charmer's trance
Please my friend no matter what she sees
Tell my lover come back to me

And on the walls
Shadows play
Twilight souls
Anguished ways
Lost adrift
Severed seas
I await you
Come to me
            
Submit corrections

comments powered by Disqus
↑ Back to top | Tea Party Tabs for The Bazaar. Lyrics for acoustic guitar and electric guitar. Tablatures and chords are parodies/interpretations of the original songs. You may use it for private study, scholarship, research or language learning purposes only