» » »

Tea Party, Temptation Tabs (ver.1)

Artists:  A B C D E F G H I J K L M N O P Q R S T U V W X Y Z # 

Temptation Tabs (ver.1)

Tea Party Tabs
 Rating:
4.3/5 (6 votes)
Temptation lessons Tabs too difficult? Try these video lessons and learn fast
1
                Composed by : Jeff Martin
Tuning: For the intro- open Gb5   low to high (Db, Gb, Db, Gb, Gb, Db)
        Remainder- E B E G B E (not important here though

The intro i am almost positive is played on the saz, jeff said in an interview he uses
the saz in temptation but he never said where so im guessin the intro and the verse.

P.S Listen to the song for timing aand use alot of trill strumming ie(strum fast)

THIS IS AS CLOSE AS I COULD GET IT SO IF YOU DONT LIKE IT GO TO HELL MAN CAUSE I NEVER SEEN 
IT TABBED YET!!

Db-000-0-0h1-111111111111111111-|-000-0-1s333333333333333p1p0--|-0-0---0-0-0-0-0-0-0---
Gb-000-0-0---000000000000000000-|-000-0-0-000000000000000------|-0-0s7-5h7p5p3-3h5p3---
Gb-000-0-0---000000000000000000-|-000-0-0-000000000000000------|-0-0---0-0-0-0-0-0-0---
Db-000-0-0---0------------------|-000--------------------------|-0-0-------------------
Gb-000-0------------------------|-000--------------------------|-0---------------------
Db-000-0------------------------|-000--------------------------|-0---------------------

Db-0-0-0-0-0-0-0-0-0-0-0---|--------------------------------------------------------0--0--0-|
Gb-0h2h3h5p3p2p0-0h2h3p2---|--0-0-0-0-0-0-0-0-0-0-0-0-0-0-0-0-0-0-0-0-0-0-0-0-0-0-----------|
Gb-0-0-0-0-0-0-0-0-0-0-0---|--0-0-0-0-0-0-0-0-0-0-0-0-0-0-0-0-0-0-0-0-0-0-0-0-0-0-----------|
Db-------------------------|--5-0-3h5s6-8p6p5-5h6p5-0h3h5h6-6-5h6p5h8p6p5-0h3h5h6-6--6---6--|
Gb-------------------------|--0-0-0-0-0-0-0-0-0-0-0-0-0-0-0-0-0-0-0-0-0-0-0-0-0-0-----------|
Db-------------------------|----------------------------------------------------------------|

Db-000-0-0h1-111111111111111111-|-000-0-1s333333333333333p1p0--|-0-0---0-0-0-0-0-0-0---
Gb-000-0-0---000000000000000000-|-000-0-0-000000000000000------|-0-0s7-5h7p5p3-3h5p3---
Gb-000-0-0---000000000000000000-|-000-0-0-000000000000000------|-0-0---0-0-0-0-0-0-0---
Db-000-0-0---0------------------|-000--------------------------|-0-0-------------------
Gb-000-0------------------------|-000--------------------------|-0---------------------
Db-000-0------------------------|-000--------------------------|-0---------------------

Db-0-0-0-0-0-0-0-0-0-0-0---|------------------|
Gb-0h2h3h5p3p2p0-0h2h3p2---|-3332-3-2-3-2-3-2-|
Gb-0-0-0-0-0-0-0-0-0-0-0---|-0000-0-0-0-0-0-0-|
Db-------------------------|-0000-0-0-0-0-0-0-|
Gb-------------------------|-3332-3-2-3-2-3-2-|
Db-------------------------|------------------|

Db|--------------------------------------------------------0--0--0-|
Gb|--0-0-0-0-0-0-0-0-0-0-0-0-0-0-0-0-0-0-0-0-0-0-0-0-0-0-----------|
Gb|--0-0-0-0-0-0-0-0-0-0-0-0-0-0-0-0-0-0-0-0-0-0-0-0-0-0-----------|
Db|--5-0-3h5s6-8p6p5-5h6p5-0h3h5h6-6-5h6p5h8p6p5-0h3h5h6-6--6---6--|
Gb|--0-0-0-0-0-0-0-0-0-0-0-0-0-0-0-0-0-0-0-0-0-0-0-0-0-0-----------|
Db|----------------------------------------------------------------|
===========Temptation by The Tea Party


I¹ve seen them play this song live on television a couple of times so I¹ll
tab out some live parts as well as the one (or two) parts on the album.


Main Riff

E-------------------
B-------------------
G-------------------
D-------------------
A-------------------
E-2-0-2-0-2-0-2-0-2-

You play this riff at the beginning and when Jeff screams ³TEMPTATION!²

Bridge Riff

We exist..........

E-------------------
B-------------------
G-------------------
D-------------------
A-------------------
E--3---3---3---3----

This riff is followed by the main riff.  I¹m not sure if this could be a
synth but this it what it sounds like.

Verse Riff (Live)

E-----0h3-2h3-2p0---
B-------------------
G-3h4---------------
D-------------------
A-------------------
E-------------------

I think that this is played on a synth on the album version but when they
play it live Jeff plays this.  Right before the interlude, it get¹s quieter
and Jeff plays this with a delay(?) as written above a couple of times, and
then an octave up a couple of times.

Interlude (live)

Jeff messes around with the main riff for a bit, does several rhythm
variations.

Solo (live) 

E-----0h3-2h3-2p0-----0h3-2h3-2p0-----------------
B---------------------------------3p0-2p0-3p0-2p0-
G-3h4-------------3h4-----------------------------
D-------------------------------------------------
A-------------------------------------------------
E-------------------------------------------------

Jeff plays this twice with the wah pedal and then fools around with one of
his exotic scales based around these notes. He then plays this a couple of
times:

E--------------------------
B--------------------------
G-3-4-4b6r4-3--4-6-6b7r6-4-
D--------------------------
A--------------------------
E--------------------------

It¹s a pretty wicked song live.  They stretch it from about two and a half
minutes (without the acoustic beginning) to about five and a half minutes
when live. There¹s other parts I might have heard but they change it a lot
live so I¹ve given you the basic structure. It rocks!

have fun with this
-matt
            
Submit corrections

comments powered by Disqus
↑ Back to top | Tea Party Tabs for Temptation. Lyrics for acoustic guitar and electric guitar. 1 Tablatures and chords are parodies/interpretations of the original songs. You may use it for private study, scholarship, research or language learning purposes only