» » »

Requiem Tabs (ver.1)

Artists:  A B C D E F G H I J K L M N O P Q R S T U V W X Y Z # 

Requiem Tabs (ver.1)

Tea Party
Rating:
3/5 (1 vote)

Hard to play? Try these video lessons and learn fast.
                
verse
|--0-------------0--0--------0----0--0--0-------------0--0--0--0--------0----0-0--|
|--0--------0----0--0------0------0--0--0--------0----0--0--0--0------0------0-0--|
|--0------0------4--0--0h2-----0--5--2--0------0------8--6--8--9--7h9-----7--0-0--|
|--3--0h2-----0--2--3-------------0--0--3--0h2-----0--7--7--7--8-------------7-0--|
|--0-------------4--0-------------0--0--0-------------0--0--0--0-------------0-0--|
|--0-------------0--3-------------0--0--0-------------7--7--7--8-------------0-0--|

Chorus                                                 Bridge         End
   Say it comes… X2                   change…fate   it passes…   this requiem…
|--0---0---0---------------------|--0---0---0---0--|--0-0-0-0--|--0--0--|
|--0---0---0---------------------|--0---0---0---0--|--0-4-5-4--|--5--0--|
|--9---7---0---4/7---7/9----9----|--9---7---4---6--|--6-6-6-6--|--4--2--|
|--8---8---7---7/10--10/12--12---|--8---9---3---7--|--5-5-5-5--|--0--0--|
|--0---0---0---------------------|--0---0---0---0--|--0-0-0-0--|--5--0--|
|--8---8---0---------------------|--8---8---3---7--|--5-5-5-5--|--0--5--|

Tuning

E|---
B|---
G|---
E|---
B|---
E|---
            
Hard to play? Try these video lessons and learn fast. | Correct




comments powered by Disqus
↑ Back to top | Tablatures and chords are parodies/interpretations of the original songs. You may use it for private study, scholarship, research or language learning purposes only