» » »

Tea Party, Master & The Margarita Bass tabs (ver.1)

Artists:  A B C D E F G H I J K L M N O P Q R S T U V W X Y Z # 

Master & The Margarita Bass tabs (ver.1)

Tea Party Tabs
Rating:
0/5 (0 votes)
Master & The Margarita lessons Tabs too difficult? Try these video lessons and learn fast
                Artist - The Tea Party
Song - The Master & Margarita
Album - The Interzone Mantras


(0:23)
G|------------------------------------------------------|
D|------------------------------------------------------|
A|1------1h3-1p0----------------------------------------|
D|----------------0-3-4-3-5p4p3h4p3--4--5------4-5-4-0--|

(0:27)
G|----------------------------------------------------------------------------|
D|----------------------------------------------------------------------------|
A|----------------------1------1h3-1p0----------------------------------------|
D|0-3-4-3-5p4p3h4p3--4------------------0-3-4-3-5p4p3h4p3--4--5------4-5-4-0--|

(0:33)
G|----------------------------|
D|----------------------------|  x 8
A|----------------------------|
D|4-5-4-0---0-4-5-4-0---0-1---|

Last one above, hold the 1st fret until (0:58)

(1:00)
G|------------------------------------------------------|
D|------------------------------------------------------|
A|1------1h3-1p0----------------------------------------|
D|----------------0-3-4-3-5p4p3h4p3--4--5------4-5-4-0--|

(1:04)
G|----------------------------|
D|----------------------------|  x 2
A|----------------------------|
D|4-5-4-0---0-4-5-4-0---0-1---|

REST (1:10)

(1:16)
G|-----|
D|-----|
A|-----|
D|-1---|

(1:17)
G|----------------------------|
D|----------------------------|  x 5
A|----------------------------|
D|4-5-4-0---0-4-5-4-0---0-1---|

(1:31)
G|----------------------------|
D|----------------------------| 
A|----------------------------|
D|4-5-4-0---0-4-5-4-0---------|

(1:35)
G|----------------------------------------------------------------------------------------------------|
D|----------------------------------------------------------------------------------------------------| 
A|----------------------------------------------------------------------------------------------------|
D|3---3---3-3--1-1---0-0---7---7---7-7--5-5---0-0---3---3---3-3--1-1---0-0---7---7---7-7--8-8---0-0---|

(1:46)
G|------------------------------------------------------------------------|
D|------------------------------------------------------------------------| 
A|------------------------------------------------------------------------|
D|3---3---3-3--1-1---0-0---7---7---7-7--5-5---0-0---3---3---3-3--1-1---\--|

REST (1:54)

(1:57)
G|--------------------------------------------------------|
D|--------------------------------------------------------|
A|1------1h3-1p0------------------------------------------|
D|----------------0-3-4-3-5p4p3h4p3--4--5------4-5-4-0----|

(2:02)
G|----------------------------|
D|----------------------------|  x 9
A|----------------------------|
D|4-5-4-0---0-4-5-4-0---0-1---|

(2:28)
G|----------------------------|
D|----------------------------|
A|----------------------------|
D|4-5-4-0---0-4-5-4-0---------|

(2:32)
G|----------------------------------------------------------------------------------------------------|
D|----------------------------------------------------------------------------------------------------| 
A|----------------------------------------------------------------------------------------------------|
D|3---3---3-3--1-1---0-0---7---7---7-7--5-5---0-0---3---3---3-3--1-1---0-0---7---7---7-7--8-8---0-0---|

(2:43)
G|---------------------------------------------------------------------------|
D|---------------------------------------------------------------------------| 
A|---------------------------------------------------------------------------|
D|3---3---3-3--1-1---0-0---7---7---7-7--5-5---0-0---3---3---3-3--1-1---0-0---|

(2:52)
G|-----------------------|
D|-----------------------|
A|------0-0---1---3b^r---|
D|5-5--------------------|

(2:56)
G|---------------------------------------|
D|---------------------------------------|
A|0-------------------------0------------|
D|-------------5-------------------------|

(3:04)
G|-----------------------|
D|-----------------------|
A|------0-0---1---3b^r---|
D|5-5--------------------|

(3:07)
G|---------------------------------------|
D|---------------------------------------|
A|0-------------------------0------------|
D|-------------5-------------------------|

(3:16)
G|-----------------------|
D|-----------------------|
A|------0-0---1---3b^r---|
D|5-5--------------------|

(3:20)
G|----------------------------------------------------------------------------------------------------|
D|----------------------------------------------------------------------------------------------------| 
A|----------------------------------------------------------------------------------------------------|
D|3---3---3-3--1-1---0-0---7---7---7-7--5-5---0-0---3---3---3-3--1-1---0-0---7---7---7-7--5-5---0-0---|

(3:31)
G|---------------------------------------------------------------------------|
D|---------------------------------------------------------------------------| 
A|---------------------------------------------------------------------------|
D|3---3---3-3--1-1---0-0---7---7---7-7--5-5---0-0---3---3---3-3--1-1---0-0---|

(3:40)
G|-----------------------|
D|-----------------------|
A|------0-0---1---3b^r---|
D|5-5--------------------|

(3:43)
G|----------------------------------------------------------------------------------------------------|
D|----------------------------------------------------------------------------------------------------| 
A|----------------------------------------------------------------------------------------------------|
D|3---3---3-3--1-1---0-0---7---7---7-7--5-5---0-0---3---3---3-3--1-1---0-0---7---7---7-7--5-5---0-0---|

(3:55)
G|---------------------------------------------------------------------------|
D|---------------------------------------------------------------------------| 
A|---------------------------------------------------------------------------|
D|3---3---3-3--1-1---0-0---7---7---7-7--5-5---0-0---3---3---3-3--1-1---------|

REST (4:04)

(4:06)
G|------------------------------------------------------|
D|------------------------------------------------------|
A|1------1h3-1p0----------------------------------------|
D|----------------0-3-4-3-5p4p3h4p3--4--5------4-5-4-0--|
            

comments powered by Disqus
↑ Back to top | Tea Party Bass for Master & The Margarita. Lyrics for acoustic guitar and electric guitar. Tablatures and chords are parodies/interpretations of the original songs. You may use it for private study, scholarship, research or language learning purposes only