» » »

Tea Party, Let Me Show You The Door Tabs (ver.1)

Artists:  A B C D E F G H I J K L M N O P Q R S T U V W X Y Z # 

Let Me Show You The Door Tabs (ver.1)

Tea Party Tabs
Rating:
0/5 (0 votes)
Let Me Show You The Door lessons Tabs too difficult? Try these video lessons and learn fast
                Let Me Show You The Door - The Tea Party

Main Riff
E|---------------------|
B|---------------------|
G|-7--7-7-9--9-9-9-9-9-|
D|-7--7-7-9--9-9-9-9-9-|
A|-5--5-5-7--7-7-7-7-7-|
E|---------------------|

Play this after the Main riff
at the start.
E|---------------|
B|---------------|
G|-9-9-7---------|
D|-9-9-7-9-7-5-2-|
A|-7-7-5-9-7-5-2-|
E|-------9-7-5-2-|

Play these after the main riff
for the rest of the song.
E|---------------------------|
B|---------------------------|
G|-9-9-7-9--9-9--9-7---------|
D|-9-9-7-9--9-9--9-7-9-7-5-2-|
A|-7-7-5-7--7-7--7-5-9-7-5-2-|
E|-------------------9-7-5-2-|

E|-----------------------------|
B|-----------------------------|
G|-9-9-7-9-12-9--9-9-7---------|
D|-9-9-7-9-12-9--9-9-7-9-7-5-2-|
A|-7-7-5-7-10-7--7-7-5-9-7-5-2-|
E|---------------------9-7-5-2-|

Verse
E|--------------------------------------|
B|--------------------------------------|
G|-7-7-9-7--7-7-9-7--------8~--------8~-|
D|-7-7-9-5--7-7-9-5--7-7-9-----7-7-9----|
A|-5-5-7----5-5-7-----------------------|
E|--------------------------------------|

Bridge
E|-------------------------------------|
B|-------------------------------------|
G|-9--------9-------9-------9--9-9-5-6-|
D|-7--------7-------7-------7--7-7-7-4-|
A|----5-6-7---5-6-7---5-6-7------------|
E|-------------------------------------|

Repeat Bridge Then Play
E|---------|
B|---------|
G|-5-6-7-8-|
D|-5-6-7-8-|
A|-3-4-5-6-|
E|---------|

Solo Chords
E|-------|
B|-------|
G|-7-7-9-|
D|-7-5-9-|
A|-5---7-|
E|-------|

Outro
E|---------------|
B|---------------|
G|-9-9-7-------9-|Repeat This.
D|-9-9-7-9-7-5-7-|
A|-7-7-5-9-7-5---|
E|-------9-7-5---|

End With This
E|----------|
B|----------|
G|-7--7-7-9-|
D|-7--7-7-9-|
A|-5--5-5-7-|
E|----------|
            
Submit corrections

comments powered by Disqus
↑ Back to top | Tea Party Tabs for Let Me Show You The Door. Lyrics for acoustic guitar and electric guitar. Tablatures and chords are parodies/interpretations of the original songs. You may use it for private study, scholarship, research or language learning purposes only