» » »

Inanna Tabs (ver.1)

Artists:  A B C D E F G H I J K L M N O P Q R S T U V W X Y Z # 

Inanna Tabs (ver.1)

Tea Party
Rating:
0/5 (0 votes)

Hard to play? Try these video lessons and learn fast.
                
This is just an interpretation to play along with the album.


Tuning:  low to high  C G C G C D


Verse

D|--0-----------------------0------------------------|
C|--0----4-5--7-8--7h8-7----4-5-4--------------------|
G|--5-6---------------------0-----6--6/9-5----5p4h5--| x2
C|--0-----------------------0------------------------|
G|--0-----------------------0------------------------|
C|--0-----------------------0------------------------|

D|--0-----------------------0------------------------|
C|--0----4-5--7-8--8h10-7---4-5-4--------------------|
G|--5-6---------------------0-----6--6/9-5----5p4h5--|
C|--0-----------------------0------------------------|
G|--0-----------------------0------------------------|
C|--0-----------------------0------------------------|

D|--0-----------------------0------------------------|
C|--0----4-5--7-8--7h8-7----4-5-4--------------------|
G|--5-6---------------------0-----6--6/9-5----5p4h5--|
C|--0-----------------------0------------------------|
G|--0-----------------------0------------------------|
C|--0-----------------------0------------------------|


Chorus

D|--0------------------------0---------------------|
C|--7h9-10-9-7-5-7h9-7\5--4--7h9-10-9-7\5-5-5\4-4--|
G|--0------------------------0---------------------|
C|--0------------------------0---------------------|
G|--0------------------------0---------------------|
C|--0------------------------0---------------------|

D|--0------------------------0------0------0------0------|
C|--7h9-10-9-7-5-7h9-7\5--4--0------0------0------0------|
G|--0------------------------5h6p5--5h6p5--5h6/9--5h6p6--|
C|--0------------------------0------0------0------0------|
G|--0------------------------0------0------0------0------|
C|--0------------------------0------0------0------0------|


Solo parts in between verse

  *Played Fast
D|-----------------------------|
C|--7-8-7-------------0-----0--|
G|--------10-8-7-8/10---3/5----|
C|-----------------------------|
G|-----------------------------|
C|-----------------------------|

D|---------------------------|
C|------0-----------------0--|
G|--4/9---3/4-0--4/9-4/9-----|
C|---------------------------|
G|---------------------------|
C|---------------------------|

D|----------------------------|
C|--/12-10-7-8-7--------------|
G|---------------10-8-10-8-7--|
C|----------------------------|
G|----------------------------|
C|----------------------------|

D|----------------------|
C|------0------------0--|
G|--4/9---3/4-0--4/9----|
C|----------------------|
G|----------------------|
C|----------------------|


Chorus

D|--0------------------------0---------------------|
C|--7h9-10-9-7-5-7h9-7\5--4--7h9-10-9-7\5-5-5\4-4--|
G|--0------------------------0---------------------|
C|--0------------------------0---------------------|
G|--0------------------------0---------------------|
C|--0------------------------0---------------------|

D|--0---------------|
C|--7h9-10-9-7-5-5--|
G|--0---------------|
C|--0---------------|
G|--0---------------|
C|--0---------------|


Heavy Part

D|--0-0---0-0---0-0---0-0---0--|
C|--0-0---0-0---0-0---0-0---0--|
G|--5-5---5-5---5-5---5-5---6--| x16
C|--0-0---0-0---0-0---0-0---0--|
G|--5-5---3-5---3-5---3-5---6--|
C|--0-0---0-0---0-0---0-0---0--|


Ending

D|--0---0---0----0--|
C|--0---0---0----0--|
G|--0---0---0----6--| Repeat to fade out
C|--0---0---0----0--|
G|---------------6--|
C|----0---0---0--0--|


Thank you for playing!
            
Hard to play? Try these video lessons and learn fast. | Correct




comments powered by Disqus
↑ Back to top | Tablatures and chords are parodies/interpretations of the original songs. You may use it for private study, scholarship, research or language learning purposes only