» » »

Tea Party, Haze On The Hills Tabs (ver.2)

Artists:  A B C D E F G H I J K L M N O P Q R S T U V W X Y Z # 

Haze On The Hills Tabs (ver.2)

Tea Party Tabs
Rating:
5/5 (2 votes)
Haze On The Hills lessons Tabs too difficult? Try these video lessons and learn fast
                #




-> no picks! play with fingers only!!!  
-> listen to the album to get the time/rhythym
-> tuning: open B  low to high >> F# B D# F# B D# 
   can tune to  E A C# E A C# (In This Time) and capo at second fret
   for same results   


Have Fun!!!!


D#|------------0-------0-------0----                      
B |--7-------7-------5-------4----2-                                                                 
F#|--7-----0-------0-------0--------
D#|--7---7-------5-------3-------1--              
B |---------------------------------               
F#|--^------------------------------                       
   harm.


D#|-5h8p5s3-1h3p1p0--------------------5h8p5s3-1h3p1p0---------            
B |-0-------0--------------------------0-------0-------/7-5-4--                                           
F#|-----------------------------------------------------0-0-0--     x2         
D#|-----------------0h1p0---0--------------------------/7-5-3--            
B |-0-------0-------------2-----0------0-------0---------------            
F#|---------------------------0--------------------------------       


D#|-------5p3---------3---                                      
B |-----0-----0-----0-----                                        
F#|---0-----------0-------    x2                                      
D#|-----------------------                                         
B |-5-----------5---------                                          
F#|-----------------------                                                  



D#|-5h8p5s3-1h3p1p0--------------------5h8p5s3-1h3p1p0---------            
B |-0-------0--------------------------0-------0-------/7-5-4--                                    
F#|-----------------------------------------------------0-0-0--              
D#|-----------------0h1p0---0--------------------------/7-5-3--            
B |-0-------0-------------2-----0------0-------0---------------            
F#|---------------------------0--------------------------------       


D#|-------5p3---------3---------0-------0-------0----                      
B |-----0-----0-----0---------7-------5-------4----2-                                                        
F#|---0-----------0---------0-------0-------0--------              
D#|-----------------------7-------5-------3-------1--              
B |-5-----------5------------------------------------               
F#|--------------------------------------------------                       


D#|-5h8p5s3-1h3p1p0-----------            
B |-0-------0-----------------                                                                          
F#|---------------------------
D#|-----------------0h1p0-----
B |-0-------0-------------2-0-
F#|---------------------------



D#|-----------------------------     ------------0h3p0------
B |-2h4p2p0---0--------------0--     ----------2-------0----
F#|-0-------4----2h4p2p0-2h4---- x2  -------------------(0)-   x2
D#|-----------------------------     1h3p1p0----------------
B |-----------------------------     --------0--------------
F#|-0------------0--------------     -----------------------
   ^^^^^^^^^^^^^^^^^^^^play twice^^^^^^^^^^^^^^^^^^^^^^^^^^^^^^
                    

D#|-------------------------------------------------------------                                        
B |-2h4p2p0---0--------------0----2h4h5p4p2p0-------------------                                           
F#|-0-------4----2h4p2p0-2h4------0-----------4p2p0-------------                                      
D#|-------------------------------------------------3p1p0-------                                        
B |--------------------------------------------------------0----                                      
F#|-0------------0----------------0---------------------------0-



D#|-5h8p5s3-1h3p1p0---------------            
B |-0-------0---------------------                                                           
F#|-------------------------------
D#|-----------------0h1p0---------
B |-0-------0-------------2-0-----
F#|---------------------------4---



D#|--------------------------12---     ---------------------------7--
B |-------0-------0----------12---     -------0--------0----------7--
F#|-----0-------0------------12--- x3  -----0--------0------------7--
D#|---0-------0--------------12---     ---0--------0--------------7--
B |--------------------------12---     ---------------------------7--
F#|-2-------4-------5---0----12---     10--------9--------7---0---7--
                            harm.                                harm.   
  ^^^^^^^^^^^^^^^^^^^^^^^^^play twice^^^^^^^^^^^^^^^^^^^^^^^^^^^^^^^^^^

D#|---------0-------0-------0----                      
B |-------7-------5-------4----2-                                                        
F#|-----0-------0-------0--------              
D#|---7-------5-------3-------1--              
B |------------------------------               
F#|------------------------------                       




D#|-5h8p5s3-1h3p1p0--------------------5h8p5s3-1h3p1p0---------            
B |-0-------0--------------------------0-------0-------/7-5-4--                              
F#|-----------------------------------------------------0-0-0--  x2           
D#|-----------------0h1p0---0--------------------------/7-5-3--            
B |-0-------0-------------2-----0------0-------0---------------            
F#|---------------------------0--------------------------------       

D#|-------5p3---------3--------0-------0-------0--------------
B |-----0-----0-----0--------7-------5-------4-----2----------
F#|---0-----------0--------0-------0-------0------------------
D#|----------------------7-------5-------3--------1-----------
B |-5-----------5---------------------------------------------
F#|-----------------------------------------------------------

D#|-------5p3---------3----------0-------0-------0------------
B |-----0-----0-----0---------11-------9-------7----5---------
F#|---0-----------0---------0--------0-------0----------------
D#|----------------------10--------8-------7-------5----------
B |-5-----------5---------------------------------------------
F#|-----------------------------------------------------------

D#|-------5p3---------3-------0-----0-----0---0---0---0---0-----0-----
B |-----0-----0-----0-------14----12----11---9---7---5---4-----2-2----
F#|---0-----------0--------0-----0-----0----0---0---0---0-----0---0---
D#|----------------------13----12----10----8---7---5---3-----1-----1--
B |-5-----------5-----------------------------------------------------
F#|---------------------------------------------------------0---------

then back to the main riff once which turns on itself and slides into 
the majestic song....   I'll give you the main riff (same tuning, with pick)

D#|--------------------------------------------------------------
B |-----0------0--------------0------------0---------------------
F#|-----1------1-3-1h3p1p0----0------------0---------------------
D#|-0h3----0h3-------------------1h3p1p0-------------------------
B |-0------0----------------0------------0-----------------------
F#|--------------------------------------------------------------

Jeff plays that a few times and ends with this riff:

D#|------------------------------------1-0--
B |---4h5-----0------------------------0-0--
F#|-------6p5---1h3p1p0----------------0-0--
D#|--------------------1h3p1p0---------1-0--
B |-0-------------------------1h3p1p0--0-0--
F#|-----------------------------------------



comments/criticism appreciated
            

comments powered by Disqus
↑ Back to top | Tea Party Tabs for Haze On The Hills. Lyrics for acoustic guitar and electric guitar. Tablatures and chords are parodies/interpretations of the original songs. You may use it for private study, scholarship, research or language learning purposes only