» » »

Tea Party, Haze On The Hills Tabs (ver.1)

Artists:  A B C D E F G H I J K L M N O P Q R S T U V W X Y Z # 

Haze On The Hills Tabs (ver.1)

Tea Party Tabs
Rating:
3/5 (2 votes)
Haze On The Hills lessons Tabs too difficult? Try these video lessons and learn fast
                

NOTE: I have spent months studying this song so this is correct (except for this one
bar i just CANT FIGURE ALL OF IT OUT!!) I have played music for a long time so I'm not
uneducated at this. I spent a long time getting this right.. so have fun! Its my
favourite song to play!

-no picks! play with fingers only!!!  
-listen to the song to get the timing
-tuning: b major (from low to high) >> F# B D# F# B D# 

legend:
~ = slow strum (youll figure it out)
/ = slide up
\ = slide down
< = bend up
> = bend down
h = hammer on
p = pull off
rit. = Ritardando (gradually get slower)
a tempo - back to normal tempo(speed).
harm. = harmonic
vib. = vibrato
LR = let ring

without further adieu:
D#|-----------0-------0-------0----                      
B |---------7-------5-------4----2-   
F#|-------0-------0-------0--------
D#|-----7-------5-------3--------1-              
B |--------------------------------               
F#|--------------------------------                       
                                 *LR


D#|-5h8p5p0--------------------------5h8p5p0-------------------            
B |-0--------------0----------------0--------------0---/7-5-4--          
F#|-----------------------------------------------------0-0-0--   x2         
D#|----------5h7h8----0h1p0---0---------------5h7h8----/7-5-3--            
B |0------------------------3-----0----------------------------            
F#|-----------------------------0------------------------------
   *LR

D#|-------5p3---------3---                                      
B |-----0-----0-----0-----                                        
F#|---0-----------0-------    x2                                      
D#|-----------------------                                         
B |-5-----------5---------                                          
F#|-----------------------                                                  


D#|-5h8p5p0------------------------------5h8p5p0-------------------
B |-0--------------0---------------------0-------------0---/7-5-4--          
F#|---------------------------------------------------------0-0-0--
D#|----------5h7h8----0h1p0---0-------------------5h7h8----/7-5-3--
B |-0-----------------------3-----0--------------------------------
F#|-----------------------------0----------------------------------       
    *LR

D#|-------5p3---------3---------0-------0-------0----                      
B |-----0-----0-----0---------7-------5-------4---2--        
F#|---0-----------0---------0-------0-------0--------              
D#|----------------------/7-------5-------3-------1--              
B |-5-----------5------------------------------------               
F#|--------------------------------------------------                       
	                                          *LR

D#|-5h8p5p0-------------------            
B |-0-------------0-----------      
F#|---------------------------
D#|---------5h7h8---0h1p0-----
B |-0---------------------2-0-
F#|---------------------------



D#|-----------------------------     
B |-2h4p2p0---0--------------0--     
F#|-0-------4----2h4p2p0-2h4---- x2  
D#|-1-----------1---------------   
B |-----------------------------   
F#|-----------------------------    

D#|------------0h3p0------ ------------0h3p0------
B |----------2-------0---- ----------2-------0----
F#|--------------------0-- -----------------------
D#|--3p1p0---------------- 1h3p1p0----------------
B |--------0-------------- --------0--------------
F#|----------------------- -----------------------

   
D#|-----------------------------     
B |-2h4p2p0---0--------------0--     
F#|-0-------4----2h4p2p0-2h4---- x2  
D#|-1-----------1---------------   
B |-----------------------------   
F#|-----------------------------    

D#|------------0h3p0------ ------------0h3p0------
B |----------2-------0---- ----------2-------0----
F#|--------------------0-- -----------------------
D#|--3p1p0---------------- 1h3p1p0----------------
B |--------0-------------- --------0--------------
F#|----------------------- -----------------------


D#|-------------------------------------------------------------           
B |-2h4p2p0---0--------------0----2h4-5p4p2p0-------------------
F#|-0-------4----2h4p2p0-2h4------0-----------4p2p0-------------  
D#|-------------------------------------------------3p1p0-------  
B |--------------------------------------------------------0----  
F#|-0-----------------------------0---------------------------0-
				  *this section open for suggestions*

D#|-5h8p5p0----------------------        
B |-0-------------0--------------   
F#|------------------------------
D#|---------5h7h8---0h1p0--------
B |-0---------------------2-0----
F#|---------------------------4>-


D#|--------------------------~12---     ---------------------------~7--
B |-------0-------0----------~12---     -------0--------0----------~7--
F#|-----0-------0------------~12--- x3  -----0--------0------------~7--
D#|---0-------0--------------~12---     ---0--------0--------------~7--
B |--------------------------~12---     ---------------------------~7--
F#|-2-------4-------5---0----~12---     10--------9--------7---0---~7--
                              harm.                                harm.LR
  ^^^^^^^^^^^^^^^^^^^^^^^^^play twice^^^^^^^^^^^^^^^^^^^^^^^^^^^^^^^^^^

D#|---------0-------0-------0----                      
B |-------7-------5-------4---2--
F#|-----0-------0-------0--------              
D#|---7-------5-------3-------1--              
B |------------------------------               
F#|------------------------------                       
                              *LR



D#|-5h8p5p0------------------------------5h8p5p0-------------------
B |-0--------------0--------------------0--------------0---/7-5-4--          
F#|---------------------------------------------------------0-0-0--  x2
D#|----------5h7h8----0h1p0---0-------------------5h7h8----/7-5-3--
B |-0-----------------------3-----0--------------------------------
F#|-----------------------------0----------------------------------       
    *LR

D#|-------5p3---------3--------0-------0-------0-------------
B |-----0-----0-----0--------7-------5-------4----2----------
F#|---0-----------0--------0-------0-------0-----------------
D#|---------------------/7-------5-------3--------1----------
B |-5-----------5--------------------------------------------
F#|----------------------------------------------------------
                                                  *LR

D#|-------5p3---------3----------0-------0-------0-----------
B |-----0-----0-----0---------11-------9-------7---5---------
F#|---0-----------0---------0--------0-------0---------------
D#|----------------------10--------8-------7-------5---------
B |-5-----------5--------------------------------------------
F#|----------------------------------------------------------
						   *vib

D#|-------5p3---------3-------0-----0-----0---0---0---0---0-----0-----
B |-----0-----0-----0-------14----12----11---9---7---5---4-----2-2----
F#|---0-----------0--------0-----0-----0----0---0---0---0-----0---0---
D#|----------------------13----12----10----8---7---5---3-----1-----1--
B |-5-----------5-----------------------------------------------------
F#|---------------------------------------------------------0---------
					 rit.

D#|-~5h8p5p0--------------------------------------------------------
B |-~0-------------0---------~0h2-2h4------~0h2-4<5-5>4---2h4p2p0---
F#|-~0-----------------------~0---0--------~0---------------------1-
D#|-~0-------5h7h8---0h1p0---~0------------~0-----------------------
B |-~0---------------------2-~0------------~0-----------------------
F#|--------------------------~0------------~0-----------------------
a tempo                             *vib


D#|------------------------------------~0
B |------------------------------------~0
F#|---1h2p1p0--------------------------~0
D#|-----------1h2p1p0------------------~0
B |--0--------0-------1h2p1p0----------~0
F#|---------------------------1h2p1p0--~0
				       *harm.



D#|~0h3-4--~0h3-4-6--3h4p3--2-h3-2h3p2-3-2h3p2h3--
B |~0---0--~0---------------0----0-----0-0--------
F#|~0------~0-------------------------------------
D#|~0------~0-------------------------------------
B |~0---0--~0---------------0----0-----0-0--------
F#|~0------~0-------------------------------------
                                   *vib


D#|-----1p0---------------------------------------~0
B |--------1p0------------------------------------~0
F#|-0-1--------0-1h2p1p0--------------------------~0
D#|----------------------1h2p1p0------------------~0
B |------------------------------1h2p1p0----------~0
F#|--------------------------------------1h2p1p0--~0
				                   *harm.


*********now it switches to the magestic song************
****************I have the intro below*******************
INTRO

(eventually electric(gtr 3) fades in, playing the same thing)
GTR1
D#|----------------------------------------------------------------
B |-------0------0--------------0------------0---------------------
F#|-------1------1-3-1h3p1p0----0------------0---------------------
D#|-0h1h3----0h3-------------------1h3p1p0------------------------- x4
B |-0--------0----------------0------------0-----------------------
F#|----------------------------------------------------------------

THEN
GTR 2 (electric)
D#|----------------------------------------------------------------
B |-4/8-10-7-5\4--4/8-10-7-5/4--4/8-10-7-5\4--4/5--5\4-------------
F#|----------------------------------------------------------------
D#|----------------------------------------------------------------
B |----------------------------------------------------------------
F#|----------------------------------------------------------------

D#|----------------------------------------------------------------
B |-4/8-10-7-5\4--4/8-10-7-5/4--4/8-12-7-5\4--4/5--5\4-------------
F#|----------------------------------------------------------------
D#|----------------------------------------------------------------
B |----------------------------------------------------------------
F#|----------------------------------------------------------------

D#|----------------------------------------------------------------
B |-4/8-10-7-5\4--4/8-10-7-5/4--4/8-12-7-5\4--4/5--5\4-------------
F#|----------------------------------------------------------------
D#|----------------------------------------------------------------
B |----------------------------------------------------------------
F#|----------------------------------------------------------------

D#|--------------------     ------------
B |--0-4--3-p0---------     -4/5--5\4---
F#|------------3p1p0--- x3  ------------
D#|--------------------     ------------
B |--------------------     ------------
F#|--------------------     ------------
...PLAYS WHILE MAIN INTRO REPEATS

Will post the rest of the Magestic song once I get it down right. 

out
            

comments powered by Disqus
↑ Back to top | Tea Party Tabs for Haze On The Hills. Lyrics for acoustic guitar and electric guitar. Tablatures and chords are parodies/interpretations of the original songs. You may use it for private study, scholarship, research or language learning purposes only