» » »

Dust To Gold Bass tabs (ver.1)

Artists:  A B C D E F G H I J K L M N O P Q R S T U V W X Y Z # 

Dust To Gold Bass tabs (ver.1)

Tea Party
Rating:
5/5 (1 vote)

Hard to play? Try these video lessons and learn fast.
                
This song has gradually become one of my favorites off of this album. Good tune so I 
I'd tab it out. This is my first tab but I'm 99% sure of it except for the chorus.

Intro

G|------------|
D|------------|
A|------------|
E|-------12/0-|

Verse
G|----------------------|--------|
D|----------------------|--------|
A|----------------------|--------|x7
E|-0-203-0-203-0-203532-|-0-0205-|
                    "I've got no patience for this..."

G|-------|
D|-------|
A|-------|x5
E|-0-203-|


Chorus                    (don't play 2nd time after 3rd, 4th chorus)
G|-----------|-----------|-------------|-------------|
D|-222-2-----|-000-0-----|-------2-222-|-------2-222-|
A|-------202-|-------444-|-------------|-------------|
E|-----------|-----------|-0-000-------|-0-000-------|
                           "This is what you want..."

Bridge
G|---------------------------------------|
D|---------------------------------------|
A|-333-3-3-3-333-5-5-5----------------0--|
E|---------------------0-000-0-000-023-32|
   "you're safe now...
                                    (don't play if it's the last time)
G|---------------------------------|------|
D|---------------------------------|------|
A|-333-3-3-3-000-0-0-0-------------|---0--|
E|---------------------0-000-0-000-|023-32|

Breakdown/Solo
G|----------------|
D|----------------|
A|----------------|x4
E|-320-320-023-532|


intro
Verse x2
Chorus x2
Verse x2
Chorus x2
Bridge x1
Verse x1
Chorus x2
Bridge x2
Breakdown/Solo
Bridge x2
Breakdown/Solo

Enjoy!
            
Hard to play? Try these video lessons and learn fast. | Correct




comments powered by Disqus
↑ Back to top | Tablatures and chords are parodies/interpretations of the original songs. You may use it for private study, scholarship, research or language learning purposes only