» » »

Army Ants Bass tabs (ver.1)

Artists:  A B C D E F G H I J K L M N O P Q R S T U V W X Y Z # 

Army Ants Bass tabs (ver.1)

Tea Party
Rating:
0/5 (0 votes)

Hard to play? Try these video lessons and learn fast.
                Intro - no bass

Verse
G|--------------------------------------------|
D|--------------------------------------------|
A|-5h7--7--5--3-5-3-5--2/5h7-7--5--3-5-3-5--2-|
E|--------------------------------------------|

End Verse
G|---------------------------|
D|---------------------------|
A|-5h7-7-7--5h7-7-7--5h7-7-7-|
E|---------------------------|

Pre-Chorus
G|--------|
D|--------|
A|--------|
E|--5--4--|

Chorus
G|------------------------------------------------------|
D|------------------------------------------------------|
A|-5h7-7-7--5h7-7-7--5h7-7-7--3h5-5-5--3h5-5-5--3h5-5-5-|
E|------------------------------------------------------|

G|-------------------------------|
D|-------------------------------|
A|-------------------------------|
E|-3h5-5-5--3h5-5-5--7--8---7--5-|

Bridge
G|------------------------|
D|-----7--6-7------3--2-3-|
A|-0-0--------------------|
E|-------------1-1--------|

Song End
G|---------------|
D|---------------|
A|-7-7-7-7--5--7-|
E|---------------|

Structure:
Intro
Verse (x3.5, add End Verse to lead into Pre-Chorus)
Pre-Chorus (x4)
Chorus (x2)
 * All above repeated again, then
Bridge (x4)
Chorus (x2)
Verse (x1.5, add Song End)

That's it... one of the best bands EVER! Go see them live if you can.
            
Hard to play? Try these video lessons and learn fast. | Correct




comments powered by Disqus
↑ Back to top | Tablatures and chords are parodies/interpretations of the original songs. You may use it for private study, scholarship, research or language learning purposes only