» » »

Tea Party, Angels Bass tabs (ver.1)

Artists:  A B C D E F G H I J K L M N O P Q R S T U V W X Y Z # 

Angels Bass tabs (ver.1)

Tea Party Tabs
 Rating:
4/5 (4 votes)
Angels lessons Tabs too difficult? Try these video lessons and learn fast
1
                Artist - The Tea Party
Song - Angels
Album - The Interzone Mantras


(0:19)
G|---------------- -------------------------------|
D|---------------10-------------------------------|  x 2
A|8--8--8--8--8--- --8--7-------------------------|
E|---------------- ----------5--5--5----8--8--8---|

(0:28)
G|-----------------------------------------------|
D|-----------------------------------------------|  x 3
A|8--8--8--8--8--8--8--7-------------------------|
E|--------------------------5--5--5----8--8--8---|

(0:40)
G|---------------- -------------------------------|
D|---------------10-------------------------------|  x 2
A|8--8--8--8--8--- --8--7-------------------------|
E|---------------- ----------5--5--5----8--8--8---|

(0:48)
G|-----------------------------------------------|
D|-----------------------------------------------|  
A|8--8--8--8--8--8--8--7-------------------------|
E|--------------------------5--5--5----8--8--8---|

(0:53)
G|---------------- -------------------------------|
D|---------------10-------------------------------|  x 2
A|8--8--8--8--8--- --8--7-------------------------|
E|---------------- ----------5--5--5----8--8--8---|

(1:01)
G|-----------------------------------------------|
D|-----------------------------------------------|  x 2
A|8--8--8--8--8--8--8--7-------------------------|
E|--------------------------5--5--5----8--8--8---|

(1:05)
G|-----------------------------------------------|
D|-----------------------------------------------|  x 2
A|-----------------------------------------------|
E|6--6--6--6--6--6--6--6----5--5--5--5--5--5--5--|

(1:13)
G|-----------------------------------------------|
D|-----------------------------------------------|
A|--------------------------------------3--3----/|
E|6--6--6--6--6--6--6--1-------------------------|

(1:18)
G|---------------- -------------------------------|
D|---------------10-------------------------------|  x 2
A|8--8--8--8--8--- --8--7-------------------------|
E|---------------- ----------5--5--5----8--8--8---|

(1:26)
G|-----------------------------------------------|
D|-----------------------------------------------|  
A|8--8--8--8--8--8--8--7-------------------------|
E|--------------------------5--5--5----8--8--8---|

(1:30)
G|---------------- -------------------------------|
D|---------------10-------------------------------|  x 2  
A|8--8--8--8--8--- --8--7-------------------------|
E|---------------- ----------5--5--5----8--8--8---|

(1:38)
G|-----------------------------------------------|
D|-----------------------------------------------|  x 2
A|-----------------------------------------------|
E|6--6--6--6--6--6--6--6----5--5--5--5--5--5--5--|

(1:47)
G|-----------------------------------------------|
D|-----------------------------------------------|
A|--------------------------------------3--3----/|
E|6--6--6--6--6--6--6--1-------------------------|

(1:50)
G|---------------- -------------------------------|
D|---------------10-------------------------------|  x 4
A|8--8--8--8--8--- --8--7-------------------------|
E|---------------- ----------5--5--5--8--8--8--8--|

(2:07)
G|-----------------------------------------------|
D|-----------------------------------------------|  
A|8--8--8--8--8--8--8--7-------------------------|
E|--------------------------5--5--5----8--8--8---|

(2:11)
G|---------------- -------------------------------|
D|---------------10-------------------------------|  x 2  
A|8--8--8--8--8--- --8--7-------------------------|
E|---------------- ----------5--5--5----8--8--8---|

(2:19)
G|-----------------------------------------------|
D|-----------------------------------------------|  x 4
A|8--8--8--8--8--8--8--7-------------------------|
E|--------------------------5--5--5----8--8--8---|

(2:36)
G|---------------- -------------------------------|
D|---------------10-------------------------------|  x 2   
A|8--8--8--8--8--- --8--7-------------------------|
E|---------------- ----------5--5--5----8--8--8---|

(2:44)
G|-----------------------------------------------|
D|-----------------------------------------------|  x 2
A|-----------------------------------------------|
E|6--6--6--6--6--6--6--6----5--5--5--5--5--5--5--|

(1:47)
G|-----------------------------------------------|
D|-----------------------------------------------|
A|--------------------------------------3--3----/|
E|6--6--6--6--6--6--6--1-------------------------|

(2:56)
G|---------------- -------------------------------|
D|---------------10-------------------------------|  x 4
A|8--8--8--8--8--- --8--7-------------------------|
E|---------------- ----------5--5--5--8--8--8--8--|

(3:13)
G|----------------------------------------------------------------------------------------------|
D|----------------------------------------------------------------------------------------------|  x 2
A|----------------------------------------------------------------------------------------------|
E|8--8--8--8--8--8--8--8----6--6--6--6--6--6--6--5--5--5--5--5--5--5--5----1--1--1--1--1--1--1--|

(3:29)
G|------------------------------------------------------------------------------------------------|
D|------------------------------------------------------------------------------------------------|
A|------------------------------------------------------------------------------------------------|
E|8--8--8--8--8--8--8--8--6--6--6--6--6--6--6--6--5--5--5--5--5--5--5--5--1--1--1--1--1--1--1--1--|

(3:38)
G|------------------------------------------------------------------------------------------------|
D|------------------------------------------------------------------------------------------------|
A|------------------------------------------------------------------------------------------------|
E|8--8--8--8--8--8--8--8--6--6--6--6--6--6--6--6--5--5--5--5--5--5--5--5--1-----------------------|

(3:47)
G|-----------------------------------------------|
D|-----------------------------------------------|  x 2
A|-----------------------------------------------|
E|6--6--6--6--6--6--6--6----5--5--5--5--5--5--5--|

(3:55)
G|---------------------------------------------------------------|
D|---------------------------------------------------------------|
A|------------------------------------------------------3--3----/|
E|6--6--6--6--6--6--6--1-----------------------------------------|
                       ^ Hold through=================> 

(4:01)
G|---------------- -------------------------------|
D|---------------10-------------------------------|  x 7
A|8--8--8--8--8--- --8--7-------------------------|
E|---------------- ----------5--5--5--8--8--8--8--|

(4:29)
G|---------------- ------------------------------------|
D|---------------10------------------------------------|  
A|8--8--8--8--8--- --8--7------------------------------|
E|---------------- ----------5--5--5--8--8--8--8--6----|
Hold last note until (4:42)
            
Submit corrections

comments powered by Disqus
↑ Back to top | Tea Party Bass for Angels. Lyrics for acoustic guitar and electric guitar. 1 Tablatures and chords are parodies/interpretations of the original songs. You may use it for private study, scholarship, research or language learning purposes only