» » »

Team Sleep, Your Skull Is Red Tabs (ver.1)

Artists:  A B C D E F G H I J K L M N O P Q R S T U V W X Y Z # 

Your Skull Is Red Tabs (ver.1)

Team Sleep Tabs
 Rating:
4.2/5 (5 votes)
Your Skull Is Red lessons Tabs too difficult? Try these video lessons and learn fast
1
                -----------------------------------------------------------------
-----------------------------------------------------------------

Tuning:EADGBe

Intro/chorus (simplified)
e|---------------------------------------------------------------|
B|---------------------------------------------------------------|
G|-8---9-----13--------------------------------------------------|
D|---------------------------------------------------------------|
A|-6---7-----11--------------------------------------------------|
E|---------------------------------------------------------------|

second guitar in the intro/chorus
e|---------------------------------------------------------------|
B|---------------------------------------------------------------|
G|-8----4---6----------------------------------------------------|
D|---------------------------------------------------------------|
A|-6----2---4----------------------------------------------------|
E|---------------------------------------------------------------|
Verse 
e|---------------------------------------------------------------|
B|---------------------------------------------------------------|
G|-4----8---6----------------------------------------------------|
D|---------------------------------------------------------------|
A|-2----6---4----------------------------------------------------|
E|---------------------------------------------------------------|

Fill                                               second time
e|---------------------------------------------------------------|
B|---------------------------------------------------------------|
G|-13------------------------------------------------------------|
D|----13--14--11----8--9---9---11--13--------------add  9--------|
A|-------------------------------------9--11---------------------|
E|---------------------------------------------------------------|
  
  Mess around with this because im not going to write it out note
e|---------------------------------------------------------------|
B|---------------------------------------------------------------|
G|---4--4----4--4------------------------------------------------|
D|-5------5------------------------------------------------------|
A|-5------5------------------------------------------------------|
E|-3------3------------------------------------------------------|

Strum over and over
e|---------------------------------------------------------------|
B|---------------------------------------------------------------|
G|-12------------------------7-----------------------------------|
D|---------------------------------------------------------------|
A|-10------------------------5-----------------------------------|
E|---------------------------------------------------------------|



Intro/Chorus (with extra notes)
e|-7-------------------------------------------------------------|
B|-9-9----12-----------------------------------------------------|
G|-8-9----13-----------------------------------------------------|
D|-6-------------------------------------------------------------|
A|-6-7----11-----------------------------------------------------|
E|---------------------------------------------------------------|

I'm not even going to mess with the little solo'ish part at the end,
I don't have the time.

Strum the chords as needed.

| / slide up
| \ slide down
| h hammer-on
| p pull-off
| ~ vibrato
| + harmonic
| x Mute note
            
Submit corrections

comments powered by Disqus
↑ Back to top | Team Sleep Tabs for Your Skull Is Red. Lyrics for acoustic guitar and electric guitar. 1 Tablatures and chords are parodies/interpretations of the original songs. You may use it for private study, scholarship, research or language learning purposes only