>
 >
Staring At The Queen

Staring At The Queen Guitar Tabs

Team Sleep - Staring At The Queen chords, tabs, tablatures, lyrics

Guitar lessons | Add/correct | Request | Top 50 tabs Artists:  A B C D E F G H I J K L M N O P Q R S T U V W X Y Z 0-9

Staring At The Queen Guitar Tabs – Team Sleep

CD, Sheet music, Poster

Do you like Staring At The Queen? Share with your friends now
Tabs
-----------------------------------------------------------------
-----------------------------------------------------------------
Tuning:EADGBe


  Guitar 1 x4
e|---------------------------------------------------------------|
B|---------------------------------------------------------------|
G|---------------------------------------------------------------|
D|---5---5----5---5----5----5----5---5---5--5--5--5--5--5--5--5--|
A|-2---2----2---2----3----3--------------------------------------|
E|-----------------------------4---4---3--3--3--3--3--3--3--3----|

  Guitar 1 x4  end on this
e|---------------------------------------------------------------|
B|---------------------------------------------------------------|
G|---------------------------------------------------------------|
D|---------------------------------------------------------------|
A|---2---2---2---2----5---5---5---5------------------------------|
E|-0---0---0---0----3---3---3---3--------------------------------|

  Guitar 2
e|---------------------------------------------------------------|
B|---------------------------------------------------------------|
G|-7---5---4---0--2--4/5\4---------------------------------------|
D|--------------------------5--7~--------------------------------|
A|---------------------------------------------------------------|
E|---------------------------------------------------------------|

e|---------------------------------------------------------------|
B|---------------------------------------------------------------|
G|-/8-7---5---4---0--2--4/5\4------------------------------------|
D|-----------------------------5--7~-----------------------------|
A|---------------------------------------------------------------|
E|---------------------------------------------------------------|

e|---------------------------------------------------------------|
B|-5--3--7-7-7-7h8-7---------------------------------------------|
G|---------------------------------------------------------------|
D|---------------------------------------------------------------|
A|---------------------------------------------------------------|
E|---------------------------------------------------------------|

e|---------------------------------------------------------------|
B|-5--3--7----0--------------------------------------------------|
G|---------------------------------------------------------------|
D|---------------------------------------------------------------|
A|---------------------------------------------------------------|
E|---------------------------------------------------------------|

e|---------------------------------------------------------------|
B|---------------------------------------------------------------|
G|-7---5---4---0--2--4/5\4---------------------------------------|
D|--------------------------5--7~--------------------------------|
A|---------------------------------------------------------------|
E|---------------------------------------------------------------|

e|---------------------------------------------------------------|
B|------------------1p0------------------------------------------|
G|-8-7---5---4----------2--4/5\4---------------------------------|
D|---------------------------------5--7~-------------------------|
A|---------------------------------------------------------------|
E|---------------------------------------------------------------|

e|---------------------------------------------------------------|
B|-------7-7-7-7h8-7---------------------------------------------|
G|-7/9-7---------------------------------------------------------|
D|---------------------------------------------------------------|
A|---------------------------------------------------------------|
E|---------------------------------------------------------------|

e|---------------------------------------------------------------|
B|-5--3---0----------4-------------------------------------------|
G|---------------------------------------------------------------|
D|---------------------------------------------------------------|
A|---------------------------------------------------------------|
E|---------------------------------------------------------------|


| / slide up
| \ slide down
| h hammer-on
| p pull-off
| ~ vibrato
| + harmonic
| x Mute note





Comments


Popular Team Sleep tabs & chords
Ataraxia 1 Tabs
Elizabeth Tabs
Iceache Tabs
Kool Aid Party Intro Tabs
Ligeia Tabs
Live From The Stage Tabs
Mercedes Tabs
Natalie Portman 1 Tabs
Natalie Portman 2 Tabs
Princeton Review Tabs


Song lyrics



↑ Back to top | Tablatures and chords are parodies/interpretations of the original songs. You may use it for private study, scholarship, research or language learning purposes only
© 2014 AZChords.com Contact us | Privacy policy | DMCA | Add/correct tabs | Request tabs | Top 50 tabs