» » »

Team Sleep, Live From The Stage Tabs (ver.1)

Artists:  A B C D E F G H I J K L M N O P Q R S T U V W X Y Z # 

Live From The Stage Tabs (ver.1)

Team Sleep Tabs
 Rating:
4.2/5 (5 votes)
Live From The Stage lessons Tabs too difficult? Try these video lessons and learn fast
                -----------------------------------------------------------------
-----------------------------------------------------------------
Tuning:EADGBe

Verse - Guitar 1 (with delay of course)
e|---------------------------------------------------------------|
B|---------------------------------------------------------------|
G|---------------------------------------------------------------|
D|------------------9--9--------6-6--6-6-6-6-6-------------------|
A|---9--9--9/11--11------11-11--6-6--6-6-6-6-6-------------------|
E|0-----------------------------4-4--4-4-4-4-4-------------------|

Intro/breakdown - Guitar 2
e|---------------------------------------------------------------|
B|-5-4------play this until 0:55 secs----------------------------|
G|---------------------------------------------------------------|
D|---------------------------------------------------------------|
A|---------------------------------------------------------------|
E|---------------------------------------------------------------|

e|---------------------------------------------------------------|
B|-5-4----5--4/5\4---9---5--5-4--4/2-2--4------------------------|
G|---------------------------------------------------------------|
D|---------------------------------------------------------------|
A|---------------------------------------------------------------|
E|---------------------------------------------------------------|

e|---------------------------------------------------------------|
B|-5--5-5-5--4--4--5--4/5\4---9~----5-5-5/7-4---5\2--------------|
G|---------------------------------------------------------------|
D|---------------------------------------------------------------|
A|---------------------------------------------------------------|
E|---------------------------------------------------------------|

Chorus - Guitar 1(listen to the song for strumming)
e|-0----------------------4--------------------------------------|
B|-0----------------------4--------------------------------------|
G|-1----------------------5--------------------------------------|
D|-2----------------------6--------------------------------------|
A|-2----------------------6--------------------------------------|
E|-0----------------------4--------------------------------------|

Chorus - Guitar 2 (same thing as guitar 1)
e|---------------------------------------------------------------|
B|---------------------------------------------------------------|
G|---------------------------------------------------------------|
D|-2----------------------6--------------------------------------|
A|-2----------------------6--------------------------------------|
E|-0----------------------4--------------------------------------|

 
* 2:44  this comes in deep in the background 
e|---------------------------------------------------------------|
B|---------------------------------------------------------------|
G|-6/9--9---------------11--------------------12-----------------|
D|---------------------------------------------------------------|
A|-4/7--7---------------9---------------------11-----------------|
E|---------------------------------------------------------------|
        ^               ^                     ^
   Strum this    then this,  and finish with this

Outro - Guitar 2  (you can leave out the notes on the A string)
e|---------------------------------------------------------------|
B|-7--7/9---9/12--12-12\9---9------------------------------------|
G|-6--6/8---8/11--11-11\8---8------------------------------------|
D|-4--4/6---6/9---9---9\6---6------------------------------------|
A|-4--4/6---6/9---9---9\6---6------------------------------------|
E|---------------------------------------------------------------|


Listen to the song for timing.
* it probably keeps going higher (actually I can hear it going 
higher; but I figure that part isn't even needed) But if you

| / slide up
| \ slide down
| h hammer-on
| p pull-off
| ~ vibrato
| + harmonic
| x Mute note
            
Submit corrections

comments powered by Disqus
↑ Back to top | Team Sleep Tabs for Live From The Stage. Lyrics for acoustic guitar and electric guitar. Tablatures and chords are parodies/interpretations of the original songs. You may use it for private study, scholarship, research or language learning purposes only