» » »

Team Sleep, Ataraxia Tabs (ver.1)

Artists:  A B C D E F G H I J K L M N O P Q R S T U V W X Y Z # 

Ataraxia Tabs (ver.1)

Team Sleep Tabs
 Rating:
3.7/5 (6 votes)
Ataraxia lessons Tabs too difficult? Try these video lessons and learn fast
1
                VERSE:(in case you're wondering why you can't hear this as Chino starts singing, it 
in after the first half of the verse)
e|---------------------------------------------------------------|
B|-----8---11-9-8-------8---11-9-8-------------------------------|
G|---8---8--------8---8---8--------8-----------------------------|
D|-8----------------8--------------------------------------------|
A|---------------------------------------------------------------|
E|---------------------------------------------------------------|

e|---------------------------------------------------------------|
B|-----8---9-8---8-----8---9-8---8-------------------------------|
G|---8---8-----8-----8---8-----8---------------------------------|
D|-9---------------9---------------------------------------------|
A|---------------------------------------------------------------|
E|---------------------------------------------------------------|

PRE-CHORUS (pt 1)              PRE CHORUS (pt 2)
e|----------------------------|---------------------------------------|
B|----------------------------|---------------------------------------|
G|----------------------------|---------------------------------------|
D|-----5----------8-6-5-6-5---|-----5-----------8-6-5---6--5---3--5---|
A|---6------------------------|---6-----------------------------------|
E|-6--------------------------|-6-------------------------------------|

CHORUS:
e|-----------------------------------------------------------------|
B|-----------------------------------------------------------------|
G|-8-8-8-8-8-8-8-8-8-8-8-8-8-8-8-8-4-4-4-4-4-4-4-4-3-3-3-3-3-3-3-3-|
D|-8-8-8-8-8-8-8-8-8-8-8-8-8-8-8-8-4-4-4-4-4-4-4-4-3-3-3-3-3-3-3-3-|
A|-6-6-6-6-6-6-6-6-6-6-6-6-6-6-6-6-2-2-2-2-2-2-2-2-1-1-1-1-1-1-1-1-|
E|-----------------------------------------------------------------|

e|-----------------------------------------------------------------|
B|-----------------------------------------------------------------|
G|-8-8-8-8-8-8-8-8-8-8-8-8-8-8-8-8-4-4-4-4-4-4-4-4-----------------|
D|-8-8-8-8-8-8-8-8-8-8-8-8-8-8-8-8-4-4-4-4-4-4-4-4-6-6-6-6-6-6-6-6-|
A|-6-6-6-6-6-6-6-6-6-6-6-6-6-6-6-6-2-2-2-2-2-2-2-2-6-6-6-6-6-6-6-6-|
E|-------------------------------------------------4-4-4-4-4-4-4-4-|

Verse x2
Pre-Chorus (pt 1 & 2)
Chorus x2
Verse x2
Pre-Chorus (pt 1 & 2)
Chorus x2
Pre-Chorus (pt 1) x3 (pt 2) x1
            
Submit corrections

comments powered by Disqus
↑ Back to top | Team Sleep Tabs for Ataraxia. Lyrics for acoustic guitar and electric guitar. 1 Tablatures and chords are parodies/interpretations of the original songs. You may use it for private study, scholarship, research or language learning purposes only