» » »

Team Me, Kennedy Street Tabs (ver.2)

Artists:  A B C D E F G H I J K L M N O P Q R S T U V W X Y Z # 

Kennedy Street Tabs (ver.2)

Team Me Tabs
Rating:
5/5 (2 votes)
Kennedy Street lessons Tabs too difficult? Try these video lessons and learn fast
                (Intro)
I hope this tab is right, I'm not sure about the measures but I think the notes are 100%
right :) This is only the intro and the verse, but as soon as I tab the chorus and the
bridge I will post the whole song here. The song is from their self-titled 5 tracks EP, 
probably one of my favourite song of theirs. Enjoy!



Intro/verse:
e|------------------------|-----------------------|-----------------------|
B|-3----1-----------------|-3----1----------------|-3----1----------------|
G|--------2-3----3---3----|--------2/3---3---3----|--------2-3--/5-/7-/10-|
D|-------------3---3---3--|------------3---3---3--|-----------------------|
A|------------------------|-----------------------|-----------------------|
E|------------------------|-----------------------|-----------------------|

e|----------|-------------------------------|-----------------------------|
B|----------|-------------------------------|------3--3p1-----------------|
G|-/12--/15-|--10-------------10-----12--15-|--10----------2-3---3---3----|
D|----------|------12-----12-----12---------|------------------3---3---3--|
A|----------|----------13-------------------|-----------------------------|
E|----------|-------------------------------|-----------------------------|

e|-----------------------|--------------------|---------------------------|
B|--3-p-1----------------|--3-p-1-----6-------|-6-------6-------6---------|
G|---------2-3---3---3---|---------2----7---7-|---7---7---7---7---7-------|
D|-------------3---3---3-|----------------8---|-----8-------8-------------|
A|-----------------------|--------------------|---------------------------|
E|-----------------------|--------------------|---------------------------|



| /  slide up
| \  slide down
| h  hammer-on
| p  pull-off
| ~  vibrato
| +  harmonic
| x  Mute note
            
Submit corrections

comments powered by Disqus
↑ Back to top | Team Me Tabs for Kennedy Street. Lyrics for acoustic guitar and electric guitar. Tablatures and chords are parodies/interpretations of the original songs. You may use it for private study, scholarship, research or language learning purposes only