>
 >
Kennedy Street

Kennedy Street Guitar Tabs

Team Me - Kennedy Street chords, tabs, tablatures, lyrics

Guitar lessons | Add/correct | Request | Top 50 tabs Artists:  A B C D E F G H I J K L M N O P Q R S T U V W X Y Z 0-9

Kennedy Street Guitar Tabs – Team Me

CD, Sheet music, Poster

Do you like Kennedy Street? Share with your friends now
ChordsTabsUkulele
As I promised, here is the rest of the song :) Brilliant tune, enjoy.

Intro/verse:

"Kennedy Street, late night breeze.../Kennedy Street, blindfolded..."

e|------------------------|-----------------------|-----------------------|
B|-3----1-----------------|-3----1----------------|-3----1----------------|
G|--------2-3----3---3----|--------2/3---3---3----|--------2-3--/5-/7-/10-|
D|-------------3---3---3--|------------3---3---3--|-----------------------|
A|------------------------|-----------------------|-----------------------|
E|------------------------|-----------------------|-----------------------|

e|----------|-------------------------------|-----------------------------|
B|----------|-------------------------------|------3--3p1-----------------|
G|-/12--/15-|--10-------------10-----12--15-|--10----------2-3---3---3----|
D|----------|------12-----12-----12---------|------------------3---3---3--|
A|----------|----------13-------------------|-----------------------------|
E|----------|-------------------------------|-----------------------------|

e|-----------------------|--------------------|---------------------------|
B|--3-p-1----------------|--3-p-1-----6-------|-6-------6-------6---------|
G|---------2-3---3---3---|---------2----7---7-|---7---7---7---7---7-------|
D|-------------3---3---3-|----------------8---|-----8-------8-------------|
A|-----------------------|--------------------|---------------------------|
E|-----------------------|--------------------|---------------------------|


Chorus:

"I guess sometimes it's never quite enough..."

e|--6--------8----------------1-------|------6------8-------------------------|
B|----6---6----6---6--3---------3---3-|------6------8-------------------------|
G|------7--------7------3---3-----3---|--x2--7------9-------------------------|
D|------------------------3-----------|---------------------------------------|
A|------------------------------------|---------------------------------------|
E|------------------------------------|---------------------------------------|


Bridge:

e|--6--6--6--6--6-6--8--8--8--8--8-8--|----------------------------------|
B|--6--6--6--6--6-6--8--8--8--8--8-8--|----------------------------------|
G|--7--7--7--7--7-7--9--9--9--9--9-9--|--x10-----------------------------|
D|------------------------------------|----------------------------------|
A|------------------------------------|----------------------------------|
E|------------------------------------|----------------------------------|





Comments


Popular Team Me tabs & chords
Patrick Wolf And Daniel Johns Chords
Patrick Wolf And Daniel Johns 1 Chords
Weathervanes And Chemicals 1 Chords
Favourite Ghost Tabs
Come Down Ukulele
Dear Sister Ukulele
Fool Ukulele
Patrick Wolf And Daniel Johns Ukulele
Show Me Ukulele
Weathervanes And Chemicals Ukulele


Song lyrics



↑ Back to top | Tablatures and chords are parodies/interpretations of the original songs. You may use it for private study, scholarship, research or language learning purposes only
© 2014 AZChords.com Contact us | Privacy policy | DMCA | Add/correct tabs | Request tabs | Top 50 tabs