>
 >
Yes I Am Too, But Who Am I Really?

Yes I Am Too, But Who Am I Really? Guitar Tabs

Team Dresch - Yes I Am Too, But Who Am I Really? chords, tabs, tablatures, lyrics

Guitar lessons | Add/correct | Request | Top 50 tabs Artists:  A B C D E F G H I J K L M N O P Q R S T U V W X Y Z 0-9

Yes I Am Too, But Who Am I Really? Guitar Tabs – Team Dresch

CD, Sheet music, Poster

Do you like Yes I Am Too, But Who Am I Really?? Share with your friends now
Tabs
G1
E|----------------------
B|----------------------
G|-777-7-77-7-7-77-7-77-----> x8
D|-777-7-77-7-7-77-7-77-
A|-555-5-55-5-5-55-5-55-
d|----------------------

G1
|-----------|
|-----------|
|-----------|----> x8
|2-0-2-9-10-|
|2-0-2-9-10-|
|2-0-2-9-10-|
|           |
|G2         |
|-----------|
|-----------|
|-----------|----> x8
|2-0-2-2-2--|
|2-0-2-2-2--|
|2-0-2-2-2--|

|-----------------------------------------|
|-----------------------------------------|
|11--1113-13-13-1311--11--1114-14-14-1411-|----> x4
|11--1113-13-13-1311--11--1114-14-14-1411-|
|9---9s11-11-11-11s9--9---9s12-12-12-12s9-|
|-----------------------------------------|
|                                         |
|-----------------------------------------|
|-----------------------------------------|
|-----------------------------------------|
|-----------------------------------------|
|4-4-----------2-2-2-4-4-----------2-2-2-4|
|----2-2-2-4-4-----------2-2-2-4-4--------|

G1
|-----------|
|-----------|
|-----------|----> x8
|2-0-2-9-10-|
|2-0-2-9-10-|
|2-0-2-9-10-|
|           |
|G2         |
|-----------|
|-----------|
|-----------|----> x8
|2-0-2-2-2--|
|2-0-2-2-2--|
|2-0-2-2-2--|


|-----------------------------------------|
|-----------------------------------------|
|11--1113-13-13-1311--11--1114-14-14-1411-|----> x4
|11--1113-13-13-1311--11--1114-14-14-1411-|
|9---9s11-11-11-11s9--9---9s12-12-12-12s9-|
|-----------------------------------------|
|                                         |
|-----------------------------------------|
|-----------------------------------------|
|-----------------------------------------|
|-----------------------------------------|
|4-4-----------2-2-2-4-4-----------2-2-2-4|
|----2-2-2-4-4-----------2-2-2-4-4--------|

|-----------------------------------------------------------------------------------|
|-----------------------------------------------------------------------------------|
|7-7-777-7-77-7-7-7-7-777-7-77-7-7--11-11-111--11-11--11-11-11-11-111--11-11--11-11-|----> x2
|7-7-777-7-77-7-7-7-7-777-7-77-7-7--11-11-111--11-11--11-11-11-11-111--11-11--11-11-|
|5-5-555-5-55-5-5-5-5-555-5-55-5-5--9--9--999--9--99--9--9--9--9--999--9--99--9--9--|
|-----------------------------------------------------------------------------------|
|                                                                                   |
|                                                                                   |
|-----------------------------------------------------------------------------------|
|-----------------------------------------------------------------------------------|
|-----------------------------------------------------------------------------------|
|-----------------------------------------------------------------------------------|
|2-----------------------------------2----------------------------------------------|
|-----------------------------------------------------------------------------------|


|--------------------------------------------------------------------|
|--------------------------------------------------------------------|
|7-7-777-7-77-7-7-7-7-777-7-77-7-7--9-9-999-9-99-9-9-9-9-999-9-99-9-9|
|7-7-777-7-77-7-7-7-7-777-7-77-7-7--9-9-999-9-99-9-9-9-9-999-9-99-9-9|
|5-5-555-5-55-5-5-5-5-555-5-55-5-5--7-7-777-7-77-7-7-7-7-777-7-77-7-7|
|--------------------------------------------------------------------|
|                                                                    |
|                                                                    |
|--------------------------------------------------------------------|
|--------------------------------------------------------------------|
|--------------------------------------------------------------------|
|--------------------------------------------------------------------|
|2-------------------------------------------------------------------|
|--------------------------------------------------------------------|

G1
|-----------|
|-----------|
|-----------|----> x4
|2-0-2-9-10-|
|2-0-2-9-10-|
|2-0-2-9-10-|
|           |
|G2         |
|-----------|
|-----------|
|-----------|----> x4
|2-0-2-2-2--|
|2-0-2-2-2--|
|2-0-2-2-2--|


|-------------
|-------------
|-4-4-4-4-4-4-
|-4-4-4-4-4-4-
|-2-2-2-2-2-2-
|-------------

G1
|-----------
|-----------
|-----------
|2-0-2-9-10-
|2-0-2-9-10-
|2-0-2-9-10-
|
|G2
|-----------
|-----------
|-----------
|2-0-2-2-2--
|2-0-2-2-2--
|2-0-2-2-2--

|--------------------------------------------------------------------------------------|
|--2---2---2---------------------2---2-----------------2---2-2s3-------------2---2---2-|
|0---0---0---------4-4-4-4-4-4-0---0---0-0-4-4-4-4-4-0---0------04-4-4-4-4-0---0---0---|
|------------2-0-2-4-4-4-4-4-4-------------4-4-4-4-4-------------4-4-4-4-4-------------|
|------------2-0-2-2-2-2-2-2-2-------------2-2-2-2-2-------------2-2-2-2-2-------------|
|------------2-0-2---------------------------------------------------------------------|
|                                                                                      |
|                                                                                      |
|--------------------------------------------------------------------------------------|
|--------------------------------------------------------------------------------------|
|------------------------------------------9-9-9-9-9-----------------------------------|
|------------2-0-2-9-9-9-9-9-9-------------9-9-9-9-9-------------9-9-9-9-9-------------|
|------------2-0-2-9-9-9-9-9-9-------------9-9-9-9-9-------------9-9-9-9-9-------------|
|5-7-9-------2-0-2-9-9-9-9-9-9-5-7-9-------9-9-9-9-905-7-9-------9-9-9-9-905-7-9-------|

|------------------------
|------------------------
|----------------------------> x3
|------------------------
|9-9-9-9-9-0-5-5-5-5-5-0-
|9-9-9-9-9-0-5-5-5-5-5-0-
|9-9-9-9-9-0-5-5-5-5-5-0-

|--------------------------
|--------------------------
|------------------------------>6
|5-5-0-15-15-0-9-9-9-9-9-0-
|5-5-0-15-15-0-9-9-9-9-9-0-
|5-5-0-15-15-0-9-9-9-9-9-0-

|------------|
|------------|
|------------|----> x3 palm muting
|0-9-9-9-9-9-|
|0-9-9-9-9-9-|
|0-9-9-9-9-9-|





Comments


Popular Team Dresch tabs & chords
Freewheel Chords
107 Tabs
Don't Try Suicide Tabs
Dont Try Suicide Tabs
Hate The Christian Right Tabs
Take On Me Tabs
Take On Me 2 Tabs
To The Enemies Of Political Rock Tabs
Freewheel Ukulele


Song lyrics



↑ Back to top | Tablatures and chords are parodies/interpretations of the original songs. You may use it for private study, scholarship, research or language learning purposes only
© 2014 AZChords.com Contact us | Privacy policy | DMCA | Add/correct tabs | Request tabs | Top 50 tabs