» » »

107 Tabs (ver.1)

Artists:  A B C D E F G H I J K L M N O P Q R S T U V W X Y Z # 

107 Tabs (ver.1)

Team Dresch
Rating:
0/5 (0 votes)
Tabs too difficult? Try these video lessons and learn fast.
                


   4/4

Intro:

    Gtr I
||------------------|-----------------|-----------------|------------------||
||o-----------------|-----------------|-----------------|-----------------o||
||------------------|-----------------|-----------------|------------------||
||------------------|-----------------|-----------------|------------------||
||o-----------------|-----------------|-----------------|-----------------o||
||--7-7-7-7-7-7-7-7-|-0-0-0-2-2-2-3-3-|-8-8-8-8-8-8-8-8-|-0-0-0-0-0-0-0-0--||

Verse: 
|-----------------|-----------------|-----------------|-----------------|
|-----------------|-----------------|-----------------|-----------------|
|-----------------|-----------------|-----------------|-----------------|
|-----------------|-----------------|-----------------|-----------------|
|-7-7-7-7-7-7-7-7-|-7-7-7-8-8-8-7-7-|-7-7-7-8-8-8-7-7-|-7-7-7-8-8-8-7-7-|
|-7-7-7-7-7-7-7-7-|-0-0-0-0-0-0-0-0-|-8-8-8-8-8-8-8-8-|-0-0-0-0-0-0-0-0-|


|-----------------|-----------------|-------------------|-----------------|
|-----------------|-----------------|-------------------|-----------------|
|-----------------|-----------------|-------------------|-----------------|
|-----------------|-----------------|-------------------|-----------------|
|-7-7-7-7-7-7-7-7-|-7-7-7-8-8-8-7-7-|-7-7-7-8-8-8-10-10-|-7-7-7-8-8-8-7-7-|
|-7-7-7-7-7-7-7-7-|-0-0-0-0-0-0-0-0-|-8-8-8-8-8-8--8--8-|-0-0-0-0-0-0-0-0-|


|---------------|---------------|---------------|---------------|
|---------------|---------------|---------------|---------------|
|---------------|---------------|---------------|---------------|
|-7--7-7--7-7-7-|-0--0-2--2-3-3-|-8--8-8--8-8-8-|-0--0-0--0-0-0-|
|-7--7-7--7-7-7-|-0--0-2--2-3-3-|-8--8-8--8-8-8-|-0--0-0--0-0-0-|
|-7--7-7--7-7-7-|-0--0-2--2-3-3-|-8--8-8--8-8-8-|-0--0-0--0-0-0-|


|---------------|---------------|---------------|----||
|---------------|---------------|---------------|----||
|---------------|---------------|---------------|----||
|-7--7-7--7-7-7-|-0--0-2--2-3-3-|-8--8-8--8-8-8-|-0--||
|-7--7-7--7-7-7-|-0--0-2--2-3-3-|-8--8-8--8-8-8-|-0--||
|-7--7-7--7-7-7-|-0--0-2--2-3-3-|-8--8-8--8-8-8-|-0--||

Faster:

||------------------|-----------------|-----------------|-----------------||
||o-----------------|-----------------|-----------------|----------------o||
||------------------|-----------------|-----------------|-----------------||
||------------------|-----------------|-----------------|-----------------||
||o-7-7-7-7-7-7-7-7-|-7-7-7-8-8-8-7-7-|-7-7-7-8-8-8-7-7-|-7-7-7-8-8-8-7-7o||
||--7-7-7-7-7-7-7-7-|-0-0-0-0-0-0-0-0-|-8-8-8-8-8-8-8-8-|-0-0-0-0-0-0-0-0-||


|---------------|---------------|---------------|---------------|
|---------------|---------------|---------------|---------------|
|---------------|---------------|---------------|---------------|
|-7--7-7--7-7-7-|-0--0-2--2-3-3-|-8--8-8--8-8-8-|-0--0-0--0-0-0-|
|-7--7-7--7-7-7-|-0--0-2--2-3-3-|-8--8-8--8-8-8-|-0--0-0--0-0-0-|
|-7--7-7--7-7-7-|-0--0-2--2-3-3-|-8--8-8--8-8-8-|-0--0-0--0-0-0-|


|---------------|---------------|---------------|---------------|
|---------------|---------------|---------------|---------------|
|---------------|---------------|---------------|---------------|
|-7--7-7--7-7-7-|-0--0-2--2-3-3-|-8--8-8--8-8-8-|-0--0-0--0-0-0-|
|-7--7-7--7-7-7-|-0--0-2--2-3-3-|-8--8-8--8-8-8-|-0--0-0--0-0-0-|
|-7--7-7--7-7-7-|-0--0-2--2-3-3-|-8--8-8--8-8-8-|-0--0-0--0-0-0-|


|---------------|---------------|---------------|----|------|
|---------------|---------------|---------------|----|------|
|---------------|---------------|---------------|----|------|
|-7--7-7--7-7-7-|-0--0-2--2-3-3-|-8--8-8--8-8-8-|-0--|------|
|-7--7-7--7-7-7-|-0--0-2--2-3-3-|-8--8-8--8-8-8-|-0--|------|
|-7--7-7--7-7-7-|-0--0-2--2-3-3-|-8--8-8--8-8-8-|-0--|------|

Chorus:

|---------------------|-----------------|
|---------------------|-----------------|
|---------------------|-----------------|
|-3-3-3-3-10-10-10-10-|-8-8-8-8-8-7-7-7-|
|-3-3-3-3-10-10-10-10-|-8-8-8-8-8-7-7-7-|
|-3-3-3-3-10-10-10-10-|-8-8-8-8-8-7-7-7-|


|---------------------|-----------------|
|---------------------|-----------------|
|---------------------|-----------------|
|-3-3-3-3-10-10-10-10-|-8-8-8-8-8-7-7-7-|
|-3-3-3-3-10-10-10-10-|-8-8-8-8-8-7-7-7-|
|-3-3-3-3-10-10-10-10-|-8-8-8-8-8-7-7-7-|


|---------------------|-----------------|
|---------------------|-----------------|
|---------------------|-----------------|
|-3-3-3-3-10-10-10-10-|-8-8-8-8-8-7-7-7-|
|-3-3-3-3-10-10-10-10-|-8-8-8-8-8-7-7-7-|
|-3-3-3-3-10-10-10-10-|-8-8-8-8-8-7-7-7-|


|---------------------|-----------------|
|---------------------|-----------------|
|---------------------|-----------------|
|-3-3-3-3-10-10-10-10-|-8-8-8-8-8-7-7-7-|
|-3-3-3-3-10-10-10-10-|-8-8-8-8-8-7-7-7-|
|-3-3-3-3-10-10-10-10-|-8-8-8-8-8-7-7-7-|
            
Tabs too difficult? Try these video lessons and learn fast.


comments powered by Disqus
↑ Back to top | Tablatures and chords are parodies/interpretations of the original songs. You may use it for private study, scholarship, research or language learning purposes only