» » »

Taylor Swift, You Don't Have To Tabs (ver.1)

Artists:  A B C D E F G H I J K L M N O P Q R S T U V W X Y Z # 

You Don't Have To Tabs (ver.1)

Taylor Swift Tabs
 Rating:
4/5 (4 votes)
You Don't Have To lessons Tabs too difficult? Try these video lessons and learn fast
1
                -------------------------------------------------------------------------------
                      YOU DON’T HAVE TO – Taylor Swift
-------------------------------------------------------------------------------

Tuning: standard

**Chords: (I just wrote the basic chord over the lyrics)
    
   C(add9) D(sus4) G  Em(7sus) A7
e|----3------3-----3-----3------0------|
B|----3------3-----3-----3------2------|
G|----0------2-----0-----0------0------|
D|----2------0-----0-----2------2------|
A|----3------x-----2-----2------0------|
E|----x------x-----3-----0------x------|


                  C    D      G          Em
You don’t have to call me and say you’re sorry
C   D      G       Em
I’m already gone
                  C    D      G        Em
You don’t have to call me and break my heart
     C      D          A7     C   G
Each time I try moving on, oh
                  C    G
You don’t have to call 
D  Em           C  G 
anymore, oh yeah
D                            C    G
You don’t have to call, baby.



*Picking Pattern is mainly plucking the root note 
than strumming the rest of the chord.*

Alternatively:

e|-------------------------------------|
B|------3-------3----------------------|
G|----0---0---2---------0-------0------|
D|----------0-----0---0-------2--------|
A|--3---------------2-----2------------|
E|--------------------------0----------|

Also, the Cadd9 is often played like this:
e|--3(3)-----|
B|--3(3)-----|
G|--0(0)-----|
D|--0/2------|
A|--0/3------|
E|-----------|
            
Submit corrections

comments powered by Disqus
↑ Back to top | Taylor Swift Tabs for You Don't Have To. Lyrics for acoustic guitar and electric guitar. 1 Tablatures and chords are parodies/interpretations of the original songs. You may use it for private study, scholarship, research or language learning purposes only