» » »

Taylor Swift, Mean Tabs (ver.1)

Artists:  A B C D E F G H I J K L M N O P Q R S T U V W X Y Z # 

Mean Tabs (ver.1)

Taylor Swift Tabs
Rating:
0/5 (0 votes)
Mean lessons Tabs too difficult? Try these video lessons and learn fast
                Taylor Swift - Mean
Most tabs of this song is with a capo but in this version it is without.
This is the way Grant McNickelson (Taylor's guitarist) it plays.

Tuning: EADGBe (standard)
Capo  : 0

In the intro you don't play but here are the chords.
Intro + Verse 1:
  C#m7 F#m Asus2
e|--0----0----0--|
B|--0----0----0--|
G|--6----4----2--|    4x
D|--6----4----2--|
A|--4----2----0--|
E|--x----x----x--|

Pre-Chorus:
   F#m C#m7 Asus2  F#m  Asus2
e|--0----0---0------0----0--|
B|--0----0---0------0----0--|
G|--4----6---2------4----2--|
D|--4----6---2------4----2--|
A|--2----4---0------2----0--|
E|--x----x---x------x----x--|

In the original song starts the acoustic guitar here.
Chorus:
    E F#m C#m7 Asus2 E   F#m Asus2
e|--0---0---0---0-----0---0---0--|
B|--0---0---0---0-----0---0---0--|
G|--1---4---6---2-----1---4---2--|    2x
D|--2---4---6---2-----2---4---2--|
A|--2---2---4---0-----2---2---0--|
E|--0---x---x---x-----0---x---x--|

    E Asus2 E
e|--0---0---0--|
B|--0---0---0--|
G|--1---2---1--|
D|--2---2---2--|
A|--2---0---2--|
E|--0---x---0--|

Verse 2:
   C#m7 F#m Asus2
e|--0----0----0--|
B|--0----0----0--|
G|--6----4----2--|    4x
D|--6----4----2--|
A|--4----2----0--|
E|--x----x----x--|

Pre-Chorus:
   F#m C#m7 Asus2  F#m  Asus2
e|--0----0---0------0----0--|
B|--0----0---0------0----0--|
G|--4----6---2------4----2--|
D|--4----6---2------4----2--|
A|--2----4---0------2----0--|
E|--x----x---x------x----x--|


Chorus:
    E F#m C#m7 Asus2  E   F#m Asus2
e|--0---0---0---0-----0---0---0--|
B|--0---0---0---0-----0---0---0--|
G|--1---4---6---2-----1---4---2--|    2x
D|--2---4---6---2-----2---4---2--|
A|--2---2---4---0-----2---2---0--|
E|--0---x---x---x-----0---x---x--|

    E Asus2 E
e|--0---0---0--|
B|--0---0---0--|
G|--1---2---1--|
D|--2---2---2--|
A|--2---0---2--|
E|--0---x---0--|

I'm not 100% about the solo chords but here they are.
Solo (Chords):
  Asus2 E
e|--0---0--|
B|--0---0--|
G|--2---1--|
D|--2---2--|
A|--0---2--|
E|--x---0--|

Bridge:
   F#m C#m7 Asus2
e|--0----0---0--|
B|--0----0---0--|
G|--4----6---2--|    2x
D|--4----6---2--|
A|--2----4---0--|
E|--x----x---x--|
   F#m C#m7 F#m Asus2
e|--0----0---0---0--|
B|--0----0---0---0--|
G|--4----6---4---2--|    2x
D|--4----6---4---2--|
A|--2----4---2---0--|
E|--x----x---x---x--|

Chorus:
    E F#m C#m7 Asus2
e|--0---0---0---0--|
B|--0---0---0---0--|
G|--1---4---6---2--|    3x
D|--2---4---6---2--|
A|--2---2---4---0--|
E|--0---x---x---x--|

e|--x---x---x---x--|
B|--x---x---x---x--|
G|--x---x---x---x--|    2x
D|--x---x---x---x--|
A|--x---x---x---x--|
E|--x---x---x---x--|

Chorus:
    E F#m C#m7 Asus2  E   F#m Asus2        E
e|--0---0---0---0-----0---0---0--        --0--|
B|--0---0---0---0-----0---0---0--        --0--|
G|--1---4---6---2-----1---4---2--    3x  --1--|
D|--2---4---6---2-----2---4---2--        --2--|
A|--2---2---4---0-----2---2---0--        --2--|
E|--0---x---x---x-----0---x---x--        --0--|

If there's anything wrong pleas let hear me ;)
            

comments powered by Disqus
↑ Back to top | Taylor Swift Tabs for Mean. Lyrics for acoustic guitar and electric guitar. Tablatures and chords are parodies/interpretations of the original songs. You may use it for private study, scholarship, research or language learning purposes only